  0
SECTION
  2
HEADER
  9
$ACADVER
  1
AC1009
  9
$DWGCODEPAGE
  3
ansi_1252
  9
$INSBASE
  10
0.0
  20
0.0
  30
0.0
  9
$EXTMIN
  10
60.4385
  20
90.7671
  30
0.0
  9
$EXTMAX
  10
235.47
  20
113.631
  30
0.0
  0
ENDSEC
  0
SECTION
  2
ENTITIES
  0
POLYLINE
  5
90
  62
0
  100
AcDbEntity
  8
0
  70
1
  0
VERTEX
  10
62.806519
  20
104.17509
  0
VERTEX
  10
72.110519
  20
104.17509
  0
VERTEX
  10
72.110519
  20
95.735092
  0
VERTEX
  10
74.478523
  20
95.735092
  0
VERTEX
  10
74.478523
  20
113.63109
  0
VERTEX
  10
72.110519
  20
113.63109
  0
VERTEX
  10
72.110519
  20
106.27909
  0
VERTEX
  10
62.806519
  20
106.27909
  0
VERTEX
  10
62.806519
  20
113.63109
  0
VERTEX
  10
60.438522
  20
113.63109
  0
VERTEX
  10
60.438522
  20
95.735092
  0
VERTEX
  10
62.806519
  20
95.735092
  0
VERTEX
  10
62.806519
  20
104.17509
  0
SEQEND
  0
POLYLINE
  5
91
  62
0
  100
AcDbEntity
  8
0
  70
1
  0
VERTEX
  10
215.29453
  20
100.87909
  0
VERTEX
  10
216.84653
  20
102.36709
  0
VERTEX
  10
221.13452
  20
95.735092
  0
VERTEX
  10
223.83853
  20
95.735092
  0
VERTEX
  10
218.38252
  20
103.88709
  0
VERTEX
  10
223.34253
  20
108.70309
  0
VERTEX
  10
220.49452
  20
108.70309
  0
VERTEX
  10
215.29453
  20
103.42309
  0
VERTEX
  10
215.29453
  20
113.63109
  0
VERTEX
  10
213.10252
  20
113.63109
  0
VERTEX
  10
213.10252
  20
95.735092
  0
VERTEX
  10
215.29453
  20
95.735092
  0
VERTEX
  10
215.29453
  20
100.87909
  0
SEQEND
  0
POLYLINE
  5
92
  62
0
  100
AcDbEntity
  8
0
  70
1
  0
VERTEX
  10
150.29453
  20
113.63109
  0
VERTEX
  10
148.10252
  20
113.63109
  0
VERTEX
  10
148.10252
  20
111.10309
  0
VERTEX
  10
150.29453
  20
111.10309
  0
VERTEX
  10
150.29453
  20
113.63109
  0
SEQEND
  0
POLYLINE
  5
93
  62
0
  100
AcDbEntity
  8
0
  70
1
  0
VERTEX
  10
136.28653
  20
103.19909
  0
VERTEX
  10
136.31198
  20
103.71516
  0
VERTEX
  10
136.3808
  20
104.22634
  0
VERTEX
  10
136.49248
  20
104.7299
  0
VERTEX
  10
136.64651
  20
105.22309
  0
VERTEX
  10
136.78059
  20
105.4887
  0
VERTEX
  10
136.93884
  20
105.73819
  0
VERTEX
  10
137.11972
  20
105.9701
  0
VERTEX
  10
137.32173
  20
106.18298
  0
VERTEX
  10
137.54333
  20
106.37538
  0
VERTEX
  10
137.78302
  20
106.54584
  0
VERTEX
  10
138.03925
  20
106.69289
  0
VERTEX
  10
138.31052
  20
106.81509
  0
VERTEX
  10
138.65186
  20
106.94255
  0
VERTEX
  10
139.00168
  20
107.03329
  0
VERTEX
  10
139.35715
  20
107.08733
  0
VERTEX
  10
139.71536
  20
107.10464
  0
VERTEX
  10
140.07347
  20
107.08528
  0
VERTEX
  10
140.42862
  20
107.02923
  0
VERTEX
  10
140.77791
  20
106.93649
  0
VERTEX
  10
141.11852
  20
106.80709
  0
VERTEX
  10
141.32608
  20
106.68839
  0
VERTEX
  10
141.51802
  20
106.54927
  0
VERTEX
  10
141.6931
  20
106.39133
  0
VERTEX
  10
141.85001
  20
106.21617
  0
VERTEX
  10
141.98749
  20
106.02538
  0
VERTEX
  10
142.10425
  20
105.82054
  0
VERTEX
  10
142.19904
  20
105.60324
  0
VERTEX
  10
142.27052
  20
105.37509
  0
VERTEX
  10
142.35522
  20
105.02492
  0
VERTEX
  10
142.41293
  20
104.66982
  0
VERTEX
  10
142.44342
  20
104.31136
  0
VERTEX
  10
142.44652
  20
103.9511
  0
VERTEX
  10
142.44652
  20
95.735092
  0
VERTEX
  10
144.64651
  20
95.735092
  0
VERTEX
  10
144.64651
  20
103.9511
  0
VERTEX
  10
144.6407
  20
104.54446
  0
VERTEX
  10
144.59595
  20
105.13553
  0
VERTEX
  10
144.51248
  20
105.72238
  0
VERTEX
  10
144.39052
  20
106.30309
  0
VERTEX
  10
144.24954
  20
106.71337
  0
VERTEX
  10
144.06049
  20
107.09824
  0
VERTEX
  10
143.82675
  20
107.45407
  0
VERTEX
  10
143.55188
  20
107.77725
  0
VERTEX
  10
143.23932
  20
108.06416
  0
VERTEX
  10
142.89259
  20
108.31118
  0
VERTEX
  10
142.51515
  20
108.51469
  0
VERTEX
  10
142.11052
  20
108.67109
  0
VERTEX
  10
141.60629
  20
108.82384
  0
VERTEX
  10
141.09348
  20
108.92847
  0
VERTEX
  10
140.57535
  20
108.98508
  0
VERTEX
  10
140.0553
  20
108.99375
  0
VERTEX
  10
139.53664
  20
108.95459
  0
VERTEX
  10
139.02274
  20
108.86769
  0
VERTEX
  10
138.51692
  20
108.73316
  0
VERTEX
  10
138.02252
  20
108.55109
  0
VERTEX
  10
137.53526
  20
108.28793
  0
VERTEX
  10
137.0809
  20
107.97418
  0
VERTEX
  10
136.66335
  20
107.6129
  0
VERTEX
  10
136.28653
  20
107.20709
  0
VERTEX
  10
136.28653
  20
113.63109
  0
VERTEX
  10
134.08652
  20
113.63109
  0
VERTEX
  10
134.08652
  20
95.735092
  0
VERTEX
  10
136.28653
  20
95.735092
  0
VERTEX
  10
136.28653
  20
103.19909
  0
SEQEND
  0
POLYLINE
  5
94
  62
0
  100
AcDbEntity
  8
0
  70
1
  0
VERTEX
  10
129.47852
  20
95.663094
  0
VERTEX
  10
130.15952
  20
95.581787
  0
VERTEX
  10
130.84348
  20
95.570816
  0
VERTEX
  10
131.52496
  20
95.629974
  0
VERTEX
  10
132.19852
  20
95.759094
  0
VERTEX
  10
131.88652
  20
97.703094
  0
VERTEX
  10
131.53874
  20
97.649773
  0
VERTEX
  10
131.18842
  20
97.623955
  0
VERTEX
  10
130.83716
  20
97.625717
  0
VERTEX
  10
130.48653
  20
97.65509
  0
VERTEX
  10
130.31714
  20
97.702576
  0
VERTEX
  10
130.16296
  20
97.778152
  0
VERTEX
  10
130.02658
  20
97.878563
  0
VERTEX
  10
129.9106
  20
98.000549
  0
VERTEX
  10
129.8176
  20
98.140854
  0
VERTEX
  10
129.75018
  20
98.296211
  0
VERTEX
  10
129.71097
  20
98.463379
  0
VERTEX
  10
129.70251
  20
98.639091
  0
VERTEX
  10
129.67854
  20
99.022758
  0
VERTEX
  10
129.67052
  20
99.407089
  0
VERTEX
  10
129.67052
  20
106.99109
  0
VERTEX
  10
131.88652
  20
106.99109
  0
VERTEX
  10
131.88652
  20
108.70309
  0
VERTEX
  10
129.67052
  20
108.70309
  0
VERTEX
  10
129.67052
  20
113.23109
  0
VERTEX
  10
127.48653
  20
111.91109
  0
VERTEX
  10
127.48653
  20
108.70309
  0
VERTEX
  10
125.87852
  20
108.70309
  0
VERTEX
  10
125.87852
  20
106.99109
  0
VERTEX
  10
127.48653
  20
106.99109
  0
VERTEX
  10
127.48653
  20
99.535095
  0
VERTEX
  10
127.48645
  20
98.982903
  0
VERTEX
  10
127.5118
  20
98.431587
  0
VERTEX
  10
127.56251
  20
97.882019
  0
VERTEX
  10
127.63852
  20
97.335091
  0
VERTEX
  10
127.71692
  20
97.068008
  0
VERTEX
  10
127.82776
  20
96.816483
  0
VERTEX
  10
127.96877
  20
96.583023
  0
VERTEX
  10
128.13763
  20
96.370171
  0
VERTEX
  10
128.33212
  20
96.180428
  0
VERTEX
  10
128.54996
  20
96.016319
  0
VERTEX
  10
128.78885
  20
95.880371
  0
VERTEX
  10
129.04652
  20
95.775093
  0
VERTEX
  10
129.25452
  20
95.71109
  0
VERTEX
  10
129.47852
  20
95.663094
  0
SEQEND
  0
POLYLINE
  5
95
  62
0
  100
AcDbEntity
  8
0
  70
1
  0
VERTEX
  10
94.286522
  20
97.079094
  0
VERTEX
  10
94.565208
  20
96.758621
  0
VERTEX
  10
94.871872
  20
96.469299
  0
VERTEX
  10
95.203857
  20
96.212616
  0
VERTEX
  10
95.558502
  20
95.990074
  0
VERTEX
  10
95.933151
  20
95.803162
  0
VERTEX
  10
96.325142
  20
95.653358
  0
VERTEX
  10
96.731819
  20
95.542168
  0
VERTEX
  10
97.150528
  20
95.471092
  0
VERTEX
  10
97.648926
  20
95.44487
  0
VERTEX
  10
98.144318
  20
95.465324
  0
VERTEX
  10
98.633575
  20
95.531586
  0
VERTEX
  10
99.113571
  20
95.642754
  0
VERTEX
  10
99.581192
  20
95.797966
  0
VERTEX
  10
100.03331
  20
95.996346
  0
VERTEX
  10
100.4668
  20
96.237015
  0
VERTEX
  10
100.87852
  20
96.519089
  0
VERTEX
  10
101.19975
  20
96.779228
  0
VERTEX
  10
101.49974
  20
97.061165
  0
VERTEX
  10
101.77751
  20
97.363548
  0
VERTEX
  10
102.03208
  20
97.685028
  0
VERTEX
  10
102.26245
  20
98.024269
  0
VERTEX
  10
102.46764
  20
98.379921
  0
VERTEX
  10
102.64665
  20
98.750641
  0
VERTEX
  10
102.79852
  20
99.135094
  0
VERTEX
  10
103.04868
  20
99.945297
  0
VERTEX
  10
103.22348
  20
100.7697
  0
VERTEX
  10
103.32301
  20
101.60316
  0
VERTEX
  10
103.34737
  20
102.44057
  0
VERTEX
  10
103.29662
  20
103.27679
  0
VERTEX
  10
103.17084
  20
104.1067
  0
VERTEX
  10
102.97011
  20
104.92518
  0
VERTEX
  10
102.69452
  20
105.72709
  0
VERTEX
  10
102.45399
  20
106.26188
  0
VERTEX
  10
102.15675
  20
106.76075
  0
VERTEX
  10
101.80694
  20
107.21982
  0
VERTEX
  10
101.40871
  20
107.63524
  0
VERTEX
  10
100.9662
  20
108.00314
  0
VERTEX
  10
100.48357
  20
108.31965
  0
VERTEX
  10
99.964966
  20
108.58092
  0
VERTEX
  10
99.41452
  20
108.78309
  0
VERTEX
  10
99.011337
  20
108.88331
  0
VERTEX
  10
98.6035
  20
108.95224
  0
VERTEX
  10
98.192795
  20
108.98993
  0
VERTEX
  10
97.781006
  20
108.99642
  0
VERTEX
  10
97.369904
  20
108.97174
  0
VERTEX
  10
96.961273
  20
108.91594
  0
VERTEX
  10
96.556885
  20
108.82904
  0
VERTEX
  10
96.158524
  20
108.71109
  0
VERTEX
  10
95.550583
  20
108.40562
  0
VERTEX
  10
94.996948
  20
108.01651
  0
VERTEX
  10
94.506096
  20
107.55067
  0
VERTEX
  10
94.086517
  20
107.01509
  0
VERTEX
  10
94.086517
  20
108.70309
  0
VERTEX
  10
92.086517
  20
108.70309
  0
VERTEX
  10
92.086517
  20
90.76709
  0
VERTEX
  10
94.286522
  20
90.76709
  0
VERTEX
  10
94.286522
  20
97.079094
  0
SEQEND
  0
POLYLINE
  5
96
  62
0
  100
AcDbEntity
  8
0
  70
1
  0
VERTEX
  10
207.00653
  20
102.52709
  0
VERTEX
  10
207.02734
  20
103.22492
  0
VERTEX
  10
207.10666
  20
103.91733
  0
VERTEX
  10
207.24391
  20
104.60062
  0
VERTEX
  10
207.43852
  20
105.27109
  0
VERTEX
  10
207.61945
  20
105.65306
  0
VERTEX
  10
207.86252
  20
105.9852
  0
VERTEX
  10
208.1582
  20
106.26257
  0
VERTEX
  10
208.49706
  20
106.48024
  0
VERTEX
  10
208.86958
  20
106.63327
  0
VERTEX
  10
209.26633
  20
106.71671
  0
VERTEX
  10
209.6778
  20
106.72563
  0
VERTEX
  10
210.09451
  20
106.65509
  0
VERTEX
  10
210.3576
  20
106.58202
  0
VERTEX
  10
210.61401
  20
106.48936
  0
VERTEX
  10
210.86267
  20
106.37758
  0
VERTEX
  10
211.10252
  20
106.24709
  0
VERTEX
  10
211.85452
  20
108.28709
  0
VERTEX
  10
211.39407
  20
108.54803
  0
VERTEX
  10
210.90778
  20
108.75224
  0
VERTEX
  10
210.40085
  20
108.89787
  0
VERTEX
  10
209.87852
  20
108.98309
  0
VERTEX
  10
209.53162
  20
108.99443
  0
VERTEX
  10
209.19113
  20
108.95915
  0
VERTEX
  10
208.86127
  20
108.87924
  0
VERTEX
  10
208.54622
  20
108.75667
  0
VERTEX
  10
208.25021
  20
108.5934
  0
VERTEX
  10
207.97748
  20
108.3914
  0
VERTEX
  10
207.73218
  20
108.15264
  0
VERTEX
  10
207.51852
  20
107.87909
  0
VERTEX
  10
207.13037
  20
107.32246
  0
VERTEX
  10
206.79053
  20
106.73509
  0
VERTEX
  10
206.79053
  20
108.70309
  0
VERTEX
  10
204.81451
  20
108.70309
  0
VERTEX
  10
204.81451
  20
95.735092
  0
VERTEX
  10
207.00653
  20
95.735092
  0
VERTEX
  10
207.00653
  20
102.52709
  0
SEQEND
  0
POLYLINE
  5
97
  62
0
  100
AcDbEntity
  8
0
  70
1
  0
VERTEX
  10
230.62253
  20
95.455093
  0
VERTEX
  10
231.04544
  20
95.47728
  0
VERTEX
  10
231.4642
  20
95.5289
  0
VERTEX
  10
231.87733
  20
95.609482
  0
VERTEX
  10
232.28334
  20
95.718582
  0
VERTEX
  10
232.68074
  20
95.855743
  0
VERTEX
  10
233.06805
  20
96.020523
  0
VERTEX
  10
233.44382
  20
96.212463
  0
VERTEX
  10
233.80652
  20
96.431091
  0
VERTEX
  10
234.07544
  20
96.630585
  0
VERTEX
  10
234.32237
  20
96.849739
  0
VERTEX
  10
234.5468
  20
97.086861
  0
VERTEX
  10
234.7482
  20
97.34021
  0
VERTEX
  10
234.92607
  20
97.608093
  0
VERTEX
  10
235.0799
  20
97.888779
  0
VERTEX
  10
235.20917
  20
98.180557
  0
VERTEX
  10
235.31335
  20
98.48172
  0
VERTEX
  10
235.39195
  20
98.790558
  0
VERTEX
  10
235.44446
  20
99.105347
  0
VERTEX
  10
235.47034
  20
99.424377
  0
VERTEX
  10
235.46909
  20
99.745926
  0
VERTEX
  10
235.4402
  20
100.06829
  0
VERTEX
  10
235.38315
  20
100.38975
  0
VERTEX
  10
235.29742
  20
100.70859
  0
VERTEX
  10
235.18253
  20
101.02309
  0
VERTEX
  10
235.02032
  20
101.31018
  0
VERTEX
  10
234.8316
  20
101.57758
  0
VERTEX
  10
234.61821
  20
101.82368
  0
VERTEX
  10
234.38202
  20
102.04691
  0
VERTEX
  10
234.12491
  20
102.24565
  0
VERTEX
  10
233.84869
  20
102.41833
  0
VERTEX
  10
233.55527
  20
102.56334
  0
VERTEX
  10
233.24652
  20
102.67909
  0
VERTEX
  10
232.41171
  20
102.9648
  0
VERTEX
  10
231.57056
  20
103.23077
  0
VERTEX
  10
230.72339
  20
103.47691
  0
VERTEX
  10
229.87051
  20
103.70309
  0
VERTEX
  10
229.08673
  20
103.91813
  0
VERTEX
  10
228.31052
  20
104.15909
  0
VERTEX
  10
228.02229
  20
104.28217
  0
VERTEX
  10
227.76233
  20
104.45294
  0
VERTEX
  10
227.53645
  20
104.66678
  0
VERTEX
  10
227.35052
  20
104.91909
  0
VERTEX
  10
227.26202
  20
105.1338
  0
VERTEX
  10
227.21315
  20
105.35551
  0
VERTEX
  10
227.20288
  20
105.57935
  0
VERTEX
  10
227.23016
  20
105.80041
  0
VERTEX
  10
227.29401
  20
106.0138
  0
VERTEX
  10
227.39336
  20
106.21464
  0
VERTEX
  10
227.52721
  20
106.39803
  0
VERTEX
  10
227.69452
  20
106.55909
  0
VERTEX
  10
227.98364
  20
106.77208
  0
VERTEX
  10
228.29977
  20
106.93804
  0
VERTEX
  10
228.6373
  20
107.05453
  0
VERTEX
  10
228.99052
  20
107.11909
  0
VERTEX
  10
229.52924
  20
107.1797
  0
VERTEX
  10
230.07004
  20
107.18782
  0
VERTEX
  10
230.60907
  20
107.14357
  0
VERTEX
  10
231.14252
  20
107.04709
  0
VERTEX
  10
231.47615
  20
106.9305
  0
VERTEX
  10
231.78278
  20
106.7673
  0
VERTEX
  10
232.05853
  20
106.56204
  0
VERTEX
  10
232.29953
  20
106.31923
  0
VERTEX
  10
232.50189
  20
106.0434
  0
VERTEX
  10
232.66174
  20
105.73909
  0
VERTEX
  10
232.77525
  20
105.41081
  0
VERTEX
  10
232.83853
  20
105.0631
  0
VERTEX
  10
234.98251
  20
105.35909
  0
VERTEX
  10
234.88329
  20
105.89139
  0
VERTEX
  10
234.7236
  20
106.40694
  0
VERTEX
  10
234.50537
  20
106.90056
  0
VERTEX
  10
234.23053
  20
107.36709
  0
VERTEX
  10
233.87184
  20
107.75285
  0
VERTEX
  10
233.46382
  20
108.08186
  0
VERTEX
  10
233.01315
  20
108.34949
  0
VERTEX
  10
232.52652
  20
108.55109
  0
VERTEX
  10
231.96921
  20
108.72632
  0
VERTEX
  10
231.40268
  20
108.85796
  0
VERTEX
  10
230.82945
  20
108.94592
  0
VERTEX
  10
230.25201
  20
108.9901
  0
VERTEX
  10
229.6729
  20
108.9904
  0
VERTEX
  10
229.0946
  20
108.94673
  0
VERTEX
  10
228.51965
  20
108.85899
  0
VERTEX
  10
227.95053
  20
108.72709
  0
VERTEX
  10
227.48209
  20
108.58276
  0
VERTEX
  10
227.03607
  20
108.38364
  0
VERTEX
  10
226.61728
  20
108.13224
  0
VERTEX
  10
226.23053
  20
107.83109
  0
VERTEX
  10
225.85085
  20
107.43831
  0
VERTEX
  10
225.54359
  20
106.99889
  0
VERTEX
  10
225.31093
  20
106.5224
  0
VERTEX
  10
225.15503
  20
106.01844
  0
VERTEX
  10
225.07806
  20
105.49655
  0
VERTEX
  10
225.08221
  20
104.96632
  0
VERTEX
  10
225.16965
  20
104.43732
  0
VERTEX
  10
225.34253
  20
103.91909
  0
VERTEX
  10
225.4944
  20
103.62296
  0
VERTEX
  10
225.674
  20
103.34573
  0
VERTEX
  10
225.87946
  20
103.08914
  0
VERTEX
  10
226.10898
  20
102.85488
  0
VERTEX
  10
226.36069
  20
102.64464
  0
VERTEX
  10
226.63274
  20
102.46013
  0
VERTEX
  10
226.92331
  20
102.30305
  0
VERTEX
  10
227.23053
  20
102.17509
  0
VERTEX
  10
227.9919
  20
101.89893
  0
VERTEX
  10
228.76216
  20
101.64939
  0
VERTEX
  10
229.5406
  20
101.42671
  0
VERTEX
  10
230.32652
  20
101.23109
  0
VERTEX
  10
230.8656
  20
101.09933
  0
VERTEX
  10
231.39784
  20
100.94324
  0
VERTEX
  10
231.92242
  20
100.76306
  0
VERTEX
  10
232.43852
  20
100.55909
  0
VERTEX
  10
232.65385
  20
100.4299
  0
VERTEX
  10
232.83829
  20
100.2683
  0
VERTEX
  10
232.98952
  20
100.07953
  0
VERTEX
  10
233.10522
  20
99.868805
  0
VERTEX
  10
233.18307
  20
99.641373
  0
VERTEX
  10
233.22078
  20
99.402451
  0
VERTEX
  10
233.21603
  20
99.157288
  0
VERTEX
  10
233.16652
  20
98.911095
  0
VERTEX
  10
233.06625
  20
98.635445
  0
VERTEX
  10
232.93149
  20
98.379494
  0
VERTEX
  10
232.76508
  20
98.145912
  0
VERTEX
  10
232.56992
  20
97.93737
  0
VERTEX
  10
232.34882
  20
97.756546
  0
VERTEX
  10
232.10464
  20
97.60611
  0
VERTEX
  10
231.84026
  20
97.488731
  0
VERTEX
  10
231.55853
  20
97.407089
  0
VERTEX
  10
231.19308
  20
97.327072
  0
VERTEX
  10
230.82425
  20
97.274017
  0
VERTEX
  10
230.45352
  20
97.247894
  0
VERTEX
  10
230.08235
  20
97.248627
  0
VERTEX
  10
229.7122
  20
97.276169
  0
VERTEX
  10
229.34454
  20
97.33046
  0
VERTEX
  10
228.98083
  20
97.411453
  0
VERTEX
  10
228.62253
  20
97.519089
  0
VERTEX
  10
228.33466
  20
97.65416
  0
VERTEX
  10
228.06735
  20
97.820313
  0
VERTEX
  10
227.82272
  20
98.015121
  0
VERTEX
  10
227.60294
  20
98.236206
  0
VERTEX
  10
227.4101
  20
98.48114
  0
VERTEX
  10
227.24632
  20
98.747543
  0
VERTEX
  10
227.11375
  20
99.03299
  0
VERTEX
  10
227.01453
  20
99.335091
  0
VERTEX
  10
226.93254
  20
99.640007
  0
VERTEX
  10
226.87852
  20
99.951096
  0
VERTEX
  10
224.71053
  20
99.607094
  0
VERTEX
  10
224.85507
  20
98.925186
  0
VERTEX
  10
225.08698
  20
98.270981
  0
VERTEX
  10
225.40265
  20
97.652847
  0
VERTEX
  10
225.79852
  20
97.079094
  0
VERTEX
  10
226.02444
  20
96.833099
  0
VERTEX
  10
226.26785
  20
96.606636
  0
VERTEX
  10
226.52744
  20
96.400513
  0
VERTEX
  10
226.8019
  20
96.215515
  0
VERTEX
  10
227.08994
  20
96.052483
  0
VERTEX
  10
227.39026
  20
95.912193
  0
VERTEX
  10
227.70155
  20
95.795456
  0
VERTEX
  10
228.02252
  20
95.703094
  0
VERTEX
  10
228.57147
  20
95.585579
  0
VERTEX
  10
229.12628
  20
95.503609
  0
VERTEX
  10
229.68521
  20
95.457382
  0
VERTEX
  10
230.24652
  20
95.44709
  0
VERTEX
  10
230.62253
  20
95.455093
  0
SEQEND
  0
POLYLINE
  5
98
  62
0
  100
AcDbEntity
  8
0
  70
1
  0
VERTEX
  10
112.08652
  20
95.463089
  0
VERTEX
  10
112.81541
  20
95.536354
  0
VERTEX
  10
113.52657
  20
95.699753
  0
VERTEX
  10
114.2117
  20
95.950829
  0
VERTEX
  10
114.86252
  20
96.287094
  0
VERTEX
  10
115.19528
  20
96.512787
  0
VERTEX
  10
115.50815
  20
96.762421
  0
VERTEX
  10
115.79995
  20
97.034668
  0
VERTEX
  10
116.06953
  20
97.328133
  0
VERTEX
  10
116.31574
  20
97.641479
  0
VERTEX
  10
116.53741
  20
97.973328
  0
VERTEX
  10
116.7334
  20
98.322311
  0
VERTEX
  10
116.90253
  20
98.687088
  0
VERTEX
  10
117.08934
  20
99.151169
  0
VERTEX
  10
117.23052
  20
99.631088
  0
VERTEX
  10
114.95853
  20
99.911095
  0
VERTEX
  10
114.76223
  20
99.395668
  0
VERTEX
  10
114.50383
  20
98.910789
  0
VERTEX
  10
114.18678
  20
98.462067
  0
VERTEX
  10
113.81452
  20
98.055092
  0
VERTEX
  10
113.57022
  20
97.863205
  0
VERTEX
  10
113.31084
  20
97.695961
  0
VERTEX
  10
113.03824
  20
97.554016
  0
VERTEX
  10
112.7543
  20
97.438034
  0
VERTEX
  10
112.46088
  20
97.348679
  0
VERTEX
  10
112.15987
  20
97.286636
  0
VERTEX
  10
111.85312
  20
97.252548
  0
VERTEX
  10
111.54253
  20
97.247093
  0
VERTEX
  10
110.9496
  20
97.286095
  0
VERTEX
  10
110.38141
  20
97.416603
  0
VERTEX
  10
109.84685
  20
97.632286
  0
VERTEX
  10
109.35484
  20
97.926826
  0
VERTEX
  10
108.91429
  20
98.2939
  0
VERTEX
  10
108.53412
  20
98.72718
  0
VERTEX
  10
108.22322
  20
99.220352
  0
VERTEX
  10
107.99052
  20
99.76709
  0
VERTEX
  10
107.84422
  20
100.22741
  0
VERTEX
  10
107.73384
  20
100.69692
  0
VERTEX
  10
107.6598
  20
101.17352
  0
VERTEX
  10
107.62252
  20
101.65509
  0
VERTEX
  10
117.29453
  20
101.65509
  0
VERTEX
  10
117.30811
  20
102.52576
  0
VERTEX
  10
117.24559
  20
103.39265
  0
VERTEX
  10
117.10753
  20
104.25077
  0
VERTEX
  10
116.89452
  20
105.09509
  0
VERTEX
  10
116.63683
  20
105.76683
  0
VERTEX
  10
116.29884
  20
106.39184
  0
VERTEX
  10
115.88697
  20
106.96408
  0
VERTEX
  10
115.40758
  20
107.47753
  0
VERTEX
  10
114.86705
  20
107.92618
  0
VERTEX
  10
114.27179
  20
108.30401
  0
VERTEX
  10
113.62815
  20
108.60499
  0
VERTEX
  10
112.94252
  20
108.82309
  0
VERTEX
  10
112.40753
  20
108.92578
  0
VERTEX
  10
111.86864
  20
108.98435
  0
VERTEX
  10
111.3285
  20
108.99904
  0
VERTEX
  10
110.78979
  20
108.97009
  0
VERTEX
  10
110.25517
  20
108.89777
  0
VERTEX
  10
109.72731
  20
108.78233
  0
VERTEX
  10
109.20886
  20
108.62402
  0
VERTEX
  10
108.70252
  20
108.42309
  0
VERTEX
  10
108.1221
  20
108.08984
  0
VERTEX
  10
107.58861
  20
107.69651
  0
VERTEX
  10
107.10591
  20
107.24818
  0
VERTEX
  10
106.67792
  20
106.74992
  0
VERTEX
  10
106.30849
  20
106.20681
  0
VERTEX
  10
106.00153
  20
105.62392
  0
VERTEX
  10
105.76091
  20
105.00632
  0
VERTEX
  10
105.59052
  20
104.35909
  0
VERTEX
  10
105.47778
  20
103.76945
  0
VERTEX
  10
105.40016
  20
103.17575
  0
VERTEX
  10
105.35764
  20
102.57954
  0
VERTEX
  10
105.35019
  20
101.98236
  0
VERTEX
  10
105.37778
  20
101.38577
  0
VERTEX
  10
105.44038
  20
100.79134
  0
VERTEX
  10
105.53796
  20
100.20058
  0
VERTEX
  10
105.67052
  20
99.615089
  0
VERTEX
  10
105.79686
  20
99.201248
  0
VERTEX
  10
105.95316
  20
98.802765
  0
VERTEX
  10
106.13799
  20
98.420837
  0
VERTEX
  10
106.34998
  20
98.056648
  0
VERTEX
  10
106.58772
  20
97.711395
  0
VERTEX
  10
106.84981
  20
97.386246
  0
VERTEX
  10
107.13485
  20
97.082413
  0
VERTEX
  10
107.44145
  20
96.801071
  0
VERTEX
  10
107.76821
  20
96.543427
  0
VERTEX
  10
108.11373
  20
96.310654
  0
VERTEX
  10
108.47661
  20
96.103958
  0
VERTEX
  10
108.85546
  20
95.924507
  0
VERTEX
  10
109.24887
  20
95.773514
  0
VERTEX
  10
109.65545
  20
95.652145
  0
VERTEX
  10
110.0738
  20
95.561607
  0
VERTEX
  10
110.50252
  20
95.50309
  0
VERTEX
  10
111.01743
  20
95.454803
  0
VERTEX
  10
111.53452
  20
95.44709
  0
VERTEX
  10
112.08652
  20
95.463089
  0
SEQEND
  0
POLYLINE
  5
99
  62
0
  100
AcDbEntity
  8
0
  70
1
  0
VERTEX
  10
196.09451
  20
95.44709
  0
VERTEX
  10
196.75687
  20
95.468269
  0
VERTEX
  10
197.40715
  20
95.560593
  0
VERTEX
  10
198.04007
  20
95.721741
  0
VERTEX
  10
198.65031
  20
95.949417
  0
VERTEX
  10
199.23257
  20
96.241287
  0
VERTEX
  10
199.78159
  20
96.59507
  0
VERTEX
  10
200.29199
  20
97.008438
  0
VERTEX
  10
200.75851
  20
97.479095
  0
VERTEX
  10
201.1954
  20
98.085518
  0
VERTEX
  10
201.54645
  20
98.741699
  0
VERTEX
  10
201.80751
  20
99.438576
  0
VERTEX
  10
201.97452
  20
100.16709
  0
VERTEX
  10
202.1188
  20
101.1711
  0
VERTEX
  10
202.17093
  20
102.18199
  0
VERTEX
  10
202.13084
  20
103.19344
  0
VERTEX
  10
201.99852
  20
104.19909
  0
VERTEX
  10
201.84119
  20
104.87952
  0
VERTEX
  10
201.60553
  20
105.52888
  0
VERTEX
  10
201.29605
  20
106.14122
  0
VERTEX
  10
200.91724
  20
106.71057
  0
VERTEX
  10
200.47359
  20
107.23099
  0
VERTEX
  10
199.96959
  20
107.69652
  0
VERTEX
  10
199.40973
  20
108.1012
  0
VERTEX
  10
198.79852
  20
108.43909
  0
VERTEX
  10
198.37218
  20
108.60856
  0
VERTEX
  10
197.93677
  20
108.74805
  0
VERTEX
  10
197.49387
  20
108.85736
  0
VERTEX
  10
197.04507
  20
108.93623
  0
VERTEX
  10
196.59198
  20
108.98447
  0
VERTEX
  10
196.13612
  20
109.00184
  0
VERTEX
  10
195.67911
  20
108.98812
  0
VERTEX
  10
195.22252
  20
108.94309
  0
VERTEX
  10
194.61572
  20
108.84831
  0
VERTEX
  10
194.02765
  20
108.69055
  0
VERTEX
  10
193.46274
  20
108.4724
  0
VERTEX
  10
192.92548
  20
108.19647
  0
VERTEX
  10
192.42035
  20
107.86537
  0
VERTEX
  10
191.95183
  20
107.48169
  0
VERTEX
  10
191.52438
  20
107.04807
  0
VERTEX
  10
191.14252
  20
106.56709
  0
VERTEX
  10
190.74023
  20
105.85353
  0
VERTEX
  10
190.42818
  20
105.09932
  0
VERTEX
  10
190.20929
  20
104.31299
  0
VERTEX
  10
190.08652
  20
103.50309
  0
VERTEX
  10
190.02023
  20
102.61814
  0
VERTEX
  10
190.02629
  20
101.73222
  0
VERTEX
  10
190.10446
  20
100.84974
  0
VERTEX
  10
190.25452
  20
99.97509
  0
VERTEX
  10
190.40878
  20
99.369728
  0
VERTEX
  10
190.6275
  20
98.790695
  0
VERTEX
  10
190.90726
  20
98.242584
  0
VERTEX
  10
191.24469
  20
97.729996
  0
VERTEX
  10
191.63634
  20
97.257553
  0
VERTEX
  10
192.0788
  20
96.829849
  0
VERTEX
  10
192.56865
  20
96.451492
  0
VERTEX
  10
193.10252
  20
96.12709
  0
VERTEX
  10
193.73515
  20
95.847252
  0
VERTEX
  10
194.39278
  20
95.639587
  0
VERTEX
  10
195.06927
  20
95.505676
  0
VERTEX
  10
195.75851
  20
95.44709
  0
VERTEX
  10
196.09451
  20
95.44709
  0
SEQEND
  0
POLYLINE
  5
9a
  62
0
  100
AcDbEntity
  8
0
  70
1
  0
VERTEX
  10
83.350525
  20
95.44709
  0
VERTEX
  10
84.01207
  20
95.467926
  0
VERTEX
  10
84.661545
  20
95.560036
  0
VERTEX
  10
85.293625
  20
95.721092
  0
VERTEX
  10
85.902985
  20
95.948761
  0
VERTEX
  10
86.484283
  20
96.240723
  0
VERTEX
  10
87.032196
  20
96.59465
  0
VERTEX
  10
87.541382
  20
97.008217
  0
VERTEX
  10
88.006523
  20
97.479095
  0
VERTEX
  10
88.442459
  20
98.086693
  0
VERTEX
  10
88.794403
  20
98.743004
  0
VERTEX
  10
89.058403
  20
99.439362
  0
VERTEX
  10
89.230522
  20
100.16709
  0
VERTEX
  10
89.371254
  20
101.17146
  0
VERTEX
  10
89.420853
  20
102.18237
  0
VERTEX
  10
89.379288
  20
103.19363
  0
VERTEX
  10
89.246521
  20
104.19909
  0
VERTEX
  10
89.090881
  20
104.8803
  0
VERTEX
  10
88.856293
  20
105.5304
  0
VERTEX
  10
88.547333
  20
106.14334
  0
VERTEX
  10
88.168556
  20
106.71307
  0
VERTEX
  10
87.724525
  20
107.23355
  0
VERTEX
  10
87.219803
  20
107.69875
  0
VERTEX
  10
86.658951
  20
108.10261
  0
VERTEX
  10
86.046524
  20
108.43909
  0
VERTEX
  10
85.325035
  20
108.70966
  0
VERTEX
  10
84.579231
  20
108.89282
  0
VERTEX
  10
83.81707
  20
108.98712
  0
VERTEX
  10
83.046524
  20
108.99109
  0
VERTEX
  10
82.403473
  20
108.94572
  0
VERTEX
  10
81.774841
  20
108.83154
  0
VERTEX
  10
81.165695
  20
108.65102
  0
VERTEX
  10
80.581146
  20
108.4066
  0
VERTEX
  10
80.026268
  20
108.10074
  0
VERTEX
  10
79.506149
  20
107.73589
  0
VERTEX
  10
79.025864
  20
107.31452
  0
VERTEX
  10
78.590523
  20
106.83909
  0
VERTEX
  10
78.334175
  20
106.46578
  0
VERTEX
  10
78.105347
  20
106.0769
  0
VERTEX
  10
77.904617
  20
105.674
  0
VERTEX
  10
77.732544
  20
105.25862
  0
VERTEX
  10
77.589722
  20
104.83229
  0
VERTEX
  10
77.47673
  20
104.39656
  0
VERTEX
  10
77.394135
  20
103.95298
  0
VERTEX
  10
77.342522
  20
103.50309
  0
VERTEX
  10
77.267845
  20
102.53154
  0
VERTEX
  10
77.284561
  20
101.5594
  0
VERTEX
  10
77.392258
  20
100.59312
  0
VERTEX
  10
77.590523
  20
99.639091
  0
VERTEX
  10
77.721771
  20
99.206467
  0
VERTEX
  10
77.885422
  20
98.790718
  0
VERTEX
  10
78.079865
  20
98.39315
  0
VERTEX
  10
78.303513
  20
98.01506
  0
VERTEX
  10
78.554779
  20
97.657745
  0
VERTEX
  10
78.832077
  20
97.322517
  0
VERTEX
  10
79.133804
  20
97.010674
  0
VERTEX
  10
79.458389
  20
96.723518
  0
VERTEX
  10
79.804222
  20
96.462357
  0
VERTEX
  10
80.169724
  20
96.22847
  0
VERTEX
  10
80.553291
  20
96.02317
  0
VERTEX
  10
80.953339
  20
95.847763
  0
VERTEX
  10
81.368279
  20
95.703552
  0
VERTEX
  10
81.796516
  20
95.591843
  0
VERTEX
  10
82.236465
  20
95.513916
  0
VERTEX
  10
82.686523
  20
95.471092
  0
VERTEX
  10
83.014519
  20
95.44709
  0
VERTEX
  10
83.350525
  20
95.44709
  0
SEQEND
  0
POLYLINE
  5
9b
  62
0
  100
AcDbEntity
  8
0
  70
1
  0
VERTEX
  10
158.62253
  20
95.455093
  0
VERTEX
  10
159.04544
  20
95.47728
  0
VERTEX
  10
159.4642
  20
95.5289
  0
VERTEX
  10
159.87733
  20
95.609482
  0
VERTEX
  10
160.28334
  20
95.718582
  0
VERTEX
  10
160.68074
  20
95.855743
  0
VERTEX
  10
161.06805
  20
96.020523
  0
VERTEX
  10
161.44382
  20
96.212463
  0
VERTEX
  10
161.80652
  20
96.431091
  0
VERTEX
  10
162.07544
  20
96.630585
  0
VERTEX
  10
162.32237
  20
96.849739
  0
VERTEX
  10
162.5468
  20
97.086861
  0
VERTEX
  10
162.7482
  20
97.34021
  0
VERTEX
  10
162.92607
  20
97.608093
  0
VERTEX
  10
163.0799
  20
97.888779
  0
VERTEX
  10
163.20917
  20
98.180557
  0
VERTEX
  10
163.31335
  20
98.48172
  0
VERTEX
  10
163.39195
  20
98.790558
  0
VERTEX
  10
163.44446
  20
99.105347
  0
VERTEX
  10
163.47034
  20
99.424377
  0
VERTEX
  10
163.46909
  20
99.745926
  0
VERTEX
  10
163.4402
  20
100.06829
  0
VERTEX
  10
163.38315
  20
100.38975
  0
VERTEX
  10
163.29742
  20
100.70859
  0
VERTEX
  10
163.18253
  20
101.02309
  0
VERTEX
  10
163.02032
  20
101.31018
  0
VERTEX
  10
162.8316
  20
101.57758
  0
VERTEX
  10
162.61821
  20
101.82368
  0
VERTEX
  10
162.38202
  20
102.04691
  0
VERTEX
  10
162.12491
  20
102.24565
  0
VERTEX
  10
161.84869
  20
102.41833
  0
VERTEX
  10
161.55527
  20
102.56334
  0
VERTEX
  10
161.24652
  20
102.67909
  0
VERTEX
  10
160.41171
  20
102.9648
  0
VERTEX
  10
159.57056
  20
103.23077
  0
VERTEX
  10
158.72339
  20
103.47691
  0
VERTEX
  10
157.87053
  20
103.70309
  0
VERTEX
  10
157.08673
  20
103.91813
  0
VERTEX
  10
156.31052
  20
104.15909
  0
VERTEX
  10
156.02229
  20
104.28217
  0
VERTEX
  10
155.76233
  20
104.45294
  0
VERTEX
  10
155.53645
  20
104.66678
  0
VERTEX
  10
155.35052
  20
104.91909
  0
VERTEX
  10
155.26202
  20
105.1338
  0
VERTEX
  10
155.21315
  20
105.35552
  0
VERTEX
  10
155.20288
  20
105.57936
  0
VERTEX
  10
155.23016
  20
105.80042
  0
VERTEX
  10
155.29401
  20
106.01381
  0
VERTEX
  10
155.39336
  20
106.21465
  0
VERTEX
  10
155.52721
  20
106.39804
  0
VERTEX
  10
155.69452
  20
106.55909
  0
VERTEX
  10
155.98364
  20
106.77208
  0
VERTEX
  10
156.29977
  20
106.93804
  0
VERTEX
  10
156.6373
  20
107.05453
  0
VERTEX
  10
156.99052
  20
107.11909
  0
VERTEX
  10
157.52924
  20
107.1797
  0
VERTEX
  10
158.07004
  20
107.18782
  0
VERTEX
  10
158.60907
  20
107.14357
  0
VERTEX
  10
159.14252
  20
107.04709
  0
VERTEX
  10
159.47615
  20
106.9305
  0
VERTEX
  10
159.78278
  20
106.7673
  0
VERTEX
  10
160.05853
  20
106.56204
  0
VERTEX
  10
160.29953
  20
106.31924
  0
VERTEX
  10
160.50189
  20
106.04341
  0
VERTEX
  10
160.66174
  20
105.73909
  0
VERTEX
  10
160.77525
  20
105.41081
  0
VERTEX
  10
160.83852
  20
105.0631
  0
VERTEX
  10
162.98253
  20
105.35909
  0
VERTEX
  10
162.8833
  20
105.89139
  0
VERTEX
  10
162.7236
  20
106.40694
  0
VERTEX
  10
162.50537
  20
106.90056
  0
VERTEX
  10
162.23053
  20
107.36709
  0
VERTEX
  10
161.87184
  20
107.75285
  0
VERTEX
  10
161.46382
  20
108.08186
  0
VERTEX
  10
161.01315
  20
108.34949
  0
VERTEX
  10
160.52652
  20
108.55109
  0
VERTEX
  10
159.96921
  20
108.72633
  0
VERTEX
  10
159.40268
  20
108.85797
  0
VERTEX
  10
158.82945
  20
108.94593
  0
VERTEX
  10
158.25203
  20
108.9901
  0
VERTEX
  10
157.67291
  20
108.99041
  0
VERTEX
  10
157.0946
  20
108.94673
  0
VERTEX
  10
156.51964
  20
108.85899
  0
VERTEX
  10
155.95052
  20
108.72709
  0
VERTEX
  10
155.48209
  20
108.58276
  0
VERTEX
  10
155.03607
  20
108.38364
  0
VERTEX
  10
154.61728
  20
108.13224
  0
VERTEX
  10
154.23053
  20
107.83109
  0
VERTEX
  10
153.85085
  20
107.43831
  0
VERTEX
  10
153.54359
  20
106.99889
  0
VERTEX
  10
153.31093
  20
106.5224
  0
VERTEX
  10
153.15503
  20
106.01844
  0
VERTEX
  10
153.07806
  20
105.49655
  0
VERTEX
  10
153.08221
  20
104.96632
  0
VERTEX
  10
153.16965
  20
104.43732
  0
VERTEX
  10
153.34253
  20
103.91909
  0
VERTEX
  10
153.4944
  20
103.62296
  0
VERTEX
  10
153.674
  20
103.34573
  0
VERTEX
  10
153.87946
  20
103.08914
  0
VERTEX
  10
154.10896
  20
102.85488
  0
VERTEX
  10
154.36066
  20
102.64464
  0
VERTEX
  10
154.63272
  20
102.46013
  0
VERTEX
  10
154.92328
  20
102.30305
  0
VERTEX
  10
155.23053
  20
102.17509
  0
VERTEX
  10
155.9919
  20
101.89893
  0
VERTEX
  10
156.76216
  20
101.6494
  0
VERTEX
  10
157.5406
  20
101.42671
  0
VERTEX
  10
158.32652
  20
101.23109
  0
VERTEX
  10
158.8656
  20
101.09933
  0
VERTEX
  10
159.39784
  20
100.94324
  0
VERTEX
  10
159.92242
  20
100.76306
  0
VERTEX
  10
160.43852
  20
100.55909
  0
VERTEX
  10
160.65385
  20
100.4299
  0
VERTEX
  10
160.83829
  20
100.2683
  0
VERTEX
  10
160.98952
  20
100.07953
  0
VERTEX
  10
161.10522
  20
99.868805
  0
VERTEX
  10
161.18307
  20
99.641373
  0
VERTEX
  10
161.22078
  20
99.402451
  0
VERTEX
  10
161.21603
  20
99.157288
  0
VERTEX
  10
161.16652
  20
98.911095
  0
VERTEX
  10
161.06625
  20
98.635445
  0
VERTEX
  10
160.93149
  20
98.379494
  0
VERTEX
  10
160.76508
  20
98.145912
  0
VERTEX
  10
160.56992
  20
97.93737
  0
VERTEX
  10
160.34882
  20
97.756546
  0
VERTEX
  10
160.10464
  20
97.60611
  0
VERTEX
  10
159.84024
  20
97.488731
  0
VERTEX
  10
159.55852
  20
97.407089
  0
VERTEX
  10
159.19305
  20
97.327072
  0
VERTEX
  10
158.82423
  20
97.274017
  0
VERTEX
  10
158.45352
  20
97.247894
  0
VERTEX
  10
158.08235
  20
97.248627
  0
VERTEX
  10
157.7122
  20
97.276169
  0
VERTEX
  10
157.34454
  20
97.33046
  0
VERTEX
  10
156.98083
  20
97.411453
  0
VERTEX
  10
156.62253
  20
97.519089
  0
VERTEX
  10
156.33466
  20
97.65416
  0
VERTEX
  10
156.06735
  20
97.820313
  0
VERTEX
  10
155.82272
  20
98.015121
  0
VERTEX
  10
155.60294
  20
98.236206
  0
VERTEX
  10
155.4101
  20
98.48114
  0
VERTEX
  10
155.24632
  20
98.747543
  0
VERTEX
  10
155.11375
  20
99.03299
  0
VERTEX
  10
155.01453
  20
99.335091
  0
VERTEX
  10
154.93254
  20
99.640007
  0
VERTEX
  10
154.87852
  20
99.951096
  0
VERTEX
  10
152.71053
  20
99.607094
  0
VERTEX
  10
152.85507
  20
98.925186
  0
VERTEX
  10
153.08698
  20
98.270981
  0
VERTEX
  10
153.40265
  20
97.652847
  0
VERTEX
  10
153.79852
  20
97.079094
  0
VERTEX
  10
154.02444
  20
96.833099
  0
VERTEX
  10
154.26785
  20
96.606636
  0
VERTEX
  10
154.52744
  20
96.400513
  0
VERTEX
  10
154.8019
  20
96.215523
  0
VERTEX
  10
155.08994
  20
96.052483
  0
VERTEX
  10
155.39026
  20
95.912193
  0
VERTEX
  10
155.70155
  20
95.795456
  0
VERTEX
  10
156.02252
  20
95.703094
  0
VERTEX
  10
156.57147
  20
95.585587
  0
VERTEX
  10
157.12628
  20
95.503616
  0
VERTEX
  10
157.68521
  20
95.457382
  0
VERTEX
  10
158.24652
  20
95.44709
  0
VERTEX
  10
158.62253
  20
95.455093
  0
SEQEND
  0
POLYLINE
  5
9c
  62
0
  100
AcDbEntity
  8
0
  70
1
  0
VERTEX
  10
180.39853
  20
105.71109
  0
VERTEX
  10
180.90253
  20
103.50309
  0
VERTEX
  10
182.95853
  20
95.735092
  0
VERTEX
  10
185.24652
  20
95.735092
  0
VERTEX
  10
189.29453
  20
108.70309
  0
VERTEX
  10
187.15852
  20
108.70309
  0
VERTEX
  10
185.68227
  20
103.70285
  0
VERTEX
  10
184.19852
  20
98.703094
  0
VERTEX
  10
182.89601
  20
103.70128
  0
VERTEX
  10
181.60652
  20
108.70309
  0
VERTEX
  10
179.35052
  20
108.70309
  0
VERTEX
  10
177.28653
  20
101.11109
  0
VERTEX
  10
176.99457
  20
99.947021
  0
VERTEX
  10
176.70251
  20
98.783089
  0
VERTEX
  10
176.66032
  20
98.606644
  0
VERTEX
  10
176.61452
  20
98.431091
  0
VERTEX
  10
175.84653
  20
101.21509
  0
VERTEX
  10
173.78252
  20
108.70309
  0
VERTEX
  10
171.51053
  20
108.70309
  0
VERTEX
  10
175.47852
  20
95.735092
  0
VERTEX
  10
177.77452
  20
95.735092
  0
VERTEX
  10
180.39853
  20
105.71109
  0
SEQEND
  0
POLYLINE
  5
9d
  62
0
  100
AcDbEntity
  8
0
  70
1
  0
VERTEX
  10
150.29453
  20
108.70309
  0
VERTEX
  10
148.10252
  20
108.70309
  0
VERTEX
  10
148.10252
  20
95.735092
  0
VERTEX
  10
150.29453
  20
95.735092
  0
VERTEX
  10
150.29453
  20
108.70309
  0
SEQEND
  0
POLYLINE
  5
9e
  62
0
  100
AcDbEntity
  8
0
  70
1
  0
VERTEX
  10
97.542526
  20
97.247093
  0
VERTEX
  10
97.186165
  20
97.269394
  0
VERTEX
  10
96.837898
  20
97.331116
  0
VERTEX
  10
96.500725
  20
97.430801
  0
VERTEX
  10
96.177658
  20
97.566963
  0
VERTEX
  10
95.871696
  20
97.738144
  0
VERTEX
  10
95.585846
  20
97.942871
  0
VERTEX
  10
95.32312
  20
98.179672
  0
VERTEX
  10
95.086517
  20
98.44709
  0
VERTEX
  10
94.774063
  20
98.903839
  0
VERTEX
  10
94.524094
  20
99.394974
  0
VERTEX
  10
94.33934
  20
99.914169
  0
VERTEX
  10
94.222519
  20
100.45509
  0
VERTEX
  10
94.141541
  20
100.97144
  0
VERTEX
  10
94.090668
  20
101.49026
  0
VERTEX
  10
94.069855
  20
102.0103
  0
VERTEX
  10
94.079041
  20
102.53023
  0
VERTEX
  10
94.118164
  20
103.04877
  0
VERTEX
  10
94.187157
  20
103.56461
  0
VERTEX
  10
94.285965
  20
104.07649
  0
VERTEX
  10
94.41452
  20
104.58309
  0
VERTEX
  10
94.548782
  20
104.9502
  0
VERTEX
  10
94.715927
  20
105.30071
  0
VERTEX
  10
94.914314
  20
105.63263
  0
VERTEX
  10
95.142349
  20
105.94395
  0
VERTEX
  10
95.398407
  20
106.23265
  0
VERTEX
  10
95.680862
  20
106.49675
  0
VERTEX
  10
95.988113
  20
106.73423
  0
VERTEX
  10
96.318527
  20
106.94309
  0
VERTEX
  10
96.721237
  20
107.11706
  0
VERTEX
  10
97.138359
  20
107.22654
  0
VERTEX
  10
97.562721
  20
107.27235
  0
VERTEX
  10
97.98716
  20
107.25533
  0
VERTEX
  10
98.404518
  20
107.17626
  0
VERTEX
  10
98.807648
  20
107.036
  0
VERTEX
  10
99.189377
  20
106.83533
  0
VERTEX
  10
99.542526
  20
106.57509
  0
VERTEX
  10
99.794739
  20
106.34048
  0
VERTEX
  10
100.02525
  20
106.08698
  0
VERTEX
  10
100.23317
  20
105.81612
  0
VERTEX
  10
100.4176
  20
105.52945
  0
VERTEX
  10
100.57765
  20
105.22848
  0
VERTEX
  10
100.71242
  20
104.91473
  0
VERTEX
  10
100.82101
  20
104.58977
  0
VERTEX
  10
100.90253
  20
104.25509
  0
VERTEX
  10
101.001
  20
103.70365
  0
VERTEX
  10
101.06639
  20
103.14885
  0
VERTEX
  10
101.09874
  20
102.59214
  0
VERTEX
  10
101.0981
  20
102.03499
  0
VERTEX
  10
101.06451
  20
101.47884
  0
VERTEX
  10
100.99802
  20
100.92517
  0
VERTEX
  10
100.89868
  20
100.37543
  0
VERTEX
  10
100.76653
  20
99.831093
  0
VERTEX
  10
100.62561
  20
99.429764
  0
VERTEX
  10
100.44142
  20
99.050995
  0
VERTEX
  10
100.21674
  20
98.69783
  0
VERTEX
  10
99.9543
  20
98.373344
  0
VERTEX
  10
99.656891
  20
98.080574
  0
VERTEX
  10
99.327278
  20
97.822571
  0
VERTEX
  10
98.968231
  20
97.602394
  0
VERTEX
  10
98.58252
  20
97.423096
  0
VERTEX
  10
98.246979
  20
97.327194
  0
VERTEX
  10
97.902527
  20
97.271088
  0
VERTEX
  10
97.542526
  20
97.247093
  0
SEQEND
  0
POLYLINE
  5
9f
  62
0
  100
AcDbEntity
  8
0
  70
1
  0
VERTEX
  10
107.75052
  20
103.46309
  0
VERTEX
  10
107.80871
  20
104.03413
  0
VERTEX
  10
107.94302
  20
104.58952
  0
VERTEX
  10
108.15109
  20
105.1217
  0
VERTEX
  10
108.43053
  20
105.62309
  0
VERTEX
  10
108.701
  20
105.97894
  0
VERTEX
  10
109.01073
  20
106.29372
  0
VERTEX
  10
109.35502
  20
106.56498
  0
VERTEX
  10
109.72918
  20
106.79029
  0
VERTEX
  10
110.12851
  20
106.9672
  0
VERTEX
  10
110.54831
  20
107.09326
  0
VERTEX
  10
110.98388
  20
107.16604
  0
VERTEX
  10
111.43053
  20
107.18309
  0
VERTEX
  10
111.72826
  20
107.17844
  0
VERTEX
  10
112.02026
  20
107.14812
  0
VERTEX
  10
112.30527
  20
107.09308
  0
VERTEX
  10
112.58202
  20
107.01433
  0
VERTEX
  10
113.10567
  20
106.78957
  0
VERTEX
  10
113.58112
  20
106.48164
  0
VERTEX
  10
113.99824
  20
106.0984
  0
VERTEX
  10
114.34692
  20
105.64768
  0
VERTEX
  10
114.49245
  20
105.39946
  0
VERTEX
  10
114.61706
  20
105.1373
  0
VERTEX
  10
114.71951
  20
104.86218
  0
VERTEX
  10
114.79852
  20
104.57509
  0
VERTEX
  10
114.91805
  20
104.02364
  0
VERTEX
  10
114.98252
  20
103.46309
  0
VERTEX
  10
107.75052
  20
103.46309
  0
SEQEND
  0
POLYLINE
  5
a0
  62
0
  100
AcDbEntity
  8
0
  70
1
  0
VERTEX
  10
83.750519
  20
97.271088
  0
VERTEX
  10
83.25354
  20
97.245331
  0
VERTEX
  10
82.764832
  20
97.287811
  0
VERTEX
  10
82.290665
  20
97.395653
  0
VERTEX
  10
81.837357
  20
97.565994
  0
VERTEX
  10
81.411194
  20
97.795975
  0
VERTEX
  10
81.018463
  20
98.082733
  0
VERTEX
  10
80.665482
  20
98.423393
  0
VERTEX
  10
80.358521
  20
98.815094
  0
VERTEX
  10
80.041824
  20
99.401505
  0
VERTEX
  10
79.802673
  20
100.02069
  0
VERTEX
  10
79.643433
  20
100.66508
  0
VERTEX
  10
79.566521
  20
101.32709
  0
VERTEX
  10
79.518692
  20
102.15941
  0
VERTEX
  10
79.553787
  20
102.99028
  0
VERTEX
  10
79.671257
  20
103.81357
  0
VERTEX
  10
79.870522
  20
104.62309
  0
VERTEX
  10
79.990227
  20
104.95287
  0
VERTEX
  10
80.138306
  20
105.26442
  0
VERTEX
  10
80.312859
  20
105.55666
  0
VERTEX
  10
80.511993
  20
105.82848
  0
VERTEX
  10
80.73381
  20
106.07876
  0
VERTEX
  10
80.976387
  20
106.3064
  0
VERTEX
  10
81.237839
  20
106.51031
  0
VERTEX
  10
81.516266
  20
106.68938
  0
VERTEX
  10
81.809769
  20
106.8425
  0
VERTEX
  10
82.116432
  20
106.96857
  0
VERTEX
  10
82.434372
  20
107.06649
  0
VERTEX
  10
82.761673
  20
107.13515
  0
VERTEX
  10
83.096436
  20
107.17343
  0
VERTEX
  10
83.436768
  20
107.18027
  0
VERTEX
  10
83.780762
  20
107.15451
  0
VERTEX
  10
84.126526
  20
107.09509
  0
VERTEX
  10
84.561691
  20
106.96692
  0
VERTEX
  10
84.972977
  20
106.7882
  0
VERTEX
  10
85.356583
  20
106.56223
  0
VERTEX
  10
85.70871
  20
106.29231
  0
VERTEX
  10
86.025574
  20
105.98174
  0
VERTEX
  10
86.30336
  20
105.63382
  0
VERTEX
  10
86.538269
  20
105.25184
  0
VERTEX
  10
86.726517
  20
104.83909
  0
VERTEX
  10
86.92514
  20
104.22067
  0
VERTEX
  10
87.063828
  20
103.58769
  0
VERTEX
  10
87.141869
  20
102.94441
  0
VERTEX
  10
87.158524
  20
102.29509
  0
VERTEX
  10
87.14534
  20
101.55393
  0
VERTEX
  10
87.054886
  20
100.82015
  0
VERTEX
  10
86.88826
  20
100.09985
  0
VERTEX
  10
86.646523
  20
99.399094
  0
VERTEX
  10
86.451759
  20
99.019211
  0
VERTEX
  10
86.216286
  20
98.668396
  0
VERTEX
  10
85.94342
  20
98.349365
  0
VERTEX
  10
85.636497
  20
98.064888
  0
VERTEX
  10
85.298828
  20
97.817673
  0
VERTEX
  10
84.933723
  20
97.610481
  0
VERTEX
  10
84.54451
  20
97.446045
  0
VERTEX
  10
84.134521
  20
97.327087
  0
VERTEX
  10
83.750519
  20
97.271088
  0
SEQEND
  0
POLYLINE
  5
a1
  62
0
  100
AcDbEntity
  8
0
  70
1
  0
VERTEX
  10
196.49452
  20
97.271088
  0
VERTEX
  10
196.02533
  20
97.244392
  0
VERTEX
  10
195.56265
  20
97.279083
  0
VERTEX
  10
195.112
  20
97.372841
  0
VERTEX
  10
194.67883
  20
97.523376
  0
VERTEX
  10
194.26865
  20
97.728378
  0
VERTEX
  10
193.88687
  20
97.985535
  0
VERTEX
  10
193.53902
  20
98.292542
  0
VERTEX
  10
193.23053
  20
98.647095
  0
VERTEX
  10
192.89175
  20
99.20166
  0
VERTEX
  10
192.62894
  20
99.792976
  0
VERTEX
  10
192.44492
  20
100.41335
  0
VERTEX
  10
192.34253
  20
101.05509
  0
VERTEX
  10
192.26999
  20
101.9545
  0
VERTEX
  10
192.29288
  20
102.85397
  0
VERTEX
  10
192.41058
  20
103.74602
  0
VERTEX
  10
192.62253
  20
104.62309
  0
VERTEX
  10
192.77716
  20
105.03041
  0
VERTEX
  10
192.97675
  20
105.4126
  0
VERTEX
  10
193.21808
  20
105.76646
  0
VERTEX
  10
193.49811
  20
106.0888
  0
VERTEX
  10
193.81369
  20
106.37643
  0
VERTEX
  10
194.16168
  20
106.62614
  0
VERTEX
  10
194.539
  20
106.83476
  0
VERTEX
  10
194.94252
  20
106.99909
  0
VERTEX
  10
195.31812
  20
107.09831
  0
VERTEX
  10
195.69884
  20
107.15739
  0
VERTEX
  10
196.08162
  20
107.17665
  0
VERTEX
  10
196.46338
  20
107.15642
  0
VERTEX
  10
196.84103
  20
107.09703
  0
VERTEX
  10
197.21149
  20
106.99879
  0
VERTEX
  10
197.57166
  20
106.86205
  0
VERTEX
  10
197.91852
  20
106.68709
  0
VERTEX
  10
198.2233
  20
106.48108
  0
VERTEX
  10
198.5051
  20
106.24855
  0
VERTEX
  10
198.76245
  20
105.99146
  0
VERTEX
  10
198.9939
  20
105.71181
  0
VERTEX
  10
199.19791
  20
105.41156
  0
VERTEX
  10
199.373
  20
105.0927
  0
VERTEX
  10
199.5177
  20
104.75722
  0
VERTEX
  10
199.63052
  20
104.40709
  0
VERTEX
  10
199.78024
  20
103.73291
  0
VERTEX
  10
199.87305
  20
103.0498
  0
VERTEX
  10
199.90857
  20
102.36134
  0
VERTEX
  10
199.88652
  20
101.67109
  0
VERTEX
  10
199.84103
  20
101.08781
  0
VERTEX
  10
199.74268
  20
100.51236
  0
VERTEX
  10
199.59225
  20
99.948273
  0
VERTEX
  10
199.39052
  20
99.399094
  0
VERTEX
  10
199.19771
  20
99.017548
  0
VERTEX
  10
198.96344
  20
98.665382
  0
VERTEX
  10
198.6911
  20
98.345406
  0
VERTEX
  10
198.38416
  20
98.06044
  0
VERTEX
  10
198.04601
  20
97.813309
  0
VERTEX
  10
197.68007
  20
97.606827
  0
VERTEX
  10
197.28976
  20
97.443817
  0
VERTEX
  10
196.87852
  20
97.327087
  0
VERTEX
  10
196.49452
  20
97.271088
  0
SEQEND
  0
ENDSEC
  0
EOF
