  0
SECTION
  2
HEADER
  9
$ACADVER
  1
AC1021
  9
$ACADMAINTVER
 70
    25
  9
$DWGCODEPAGE
  3
ANSI_1251
  9
$INSBASE
 10
0.0
 20
0.0
 30
0.0
  9
$EXTMIN
 10
-267.9926
 20
-170.9564
 30
0.0
  9
$EXTMAX
 10
280.6655
 20
179.5988
 30
0.0
  9
$LIMMIN
 10
0.0
 20
0.0
  9
$LIMMAX
 10
12.0
 20
9.0
  9
$ORTHOMODE
 70
     0
  9
$REGENMODE
 70
     1
  9
$FILLMODE
 70
     1
  9
$QTEXTMODE
 70
     0
  9
$MIRRTEXT
 70
     1
  9
$LTSCALE
 40
1.0
  9
$ATTMODE
 70
     1
  9
$TEXTSIZE
 40
0.2
  9
$TRACEWID
 40
0.05
  9
$TEXTSTYLE
  7
Standard
  9
$CLAYER
  8
0
  9
$CELTYPE
  6
ByLayer
  9
$CECOLOR
 62
   256
  9
$CELTSCALE
 40
1.0
  9
$DISPSILH
 70
     0
  9
$DIMSCALE
 40
1.0
  9
$DIMASZ
 40
0.18
  9
$DIMEXO
 40
0.0625
  9
$DIMDLI
 40
0.38
  9
$DIMRND
 40
0.0
  9
$DIMDLE
 40
0.0
  9
$DIMEXE
 40
0.18
  9
$DIMTP
 40
0.0
  9
$DIMTM
 40
0.0
  9
$DIMTXT
 40
0.18
  9
$DIMCEN
 40
0.09
  9
$DIMTSZ
 40
0.0
  9
$DIMTOL
 70
     0
  9
$DIMLIM
 70
     0
  9
$DIMTIH
 70
     1
  9
$DIMTOH
 70
     1
  9
$DIMSE1
 70
     0
  9
$DIMSE2
 70
     0
  9
$DIMTAD
 70
     0
  9
$DIMZIN
 70
     0
  9
$DIMBLK
  1

  9
$DIMASO
 70
     1
  9
$DIMSHO
 70
     1
  9
$DIMPOST
  1

  9
$DIMAPOST
  1

  9
$DIMALT
 70
     0
  9
$DIMALTD
 70
     2
  9
$DIMALTF
 40
25.4
  9
$DIMLFAC
 40
1.0
  9
$DIMTOFL
 70
     0
  9
$DIMTVP
 40
0.0
  9
$DIMTIX
 70
     0
  9
$DIMSOXD
 70
     0
  9
$DIMSAH
 70
     0
  9
$DIMBLK1
  1

  9
$DIMBLK2
  1

  9
$DIMSTYLE
  2
Standard
  9
$DIMCLRD
 70
     0
  9
$DIMCLRE
 70
     0
  9
$DIMCLRT
 70
     0
  9
$DIMTFAC
 40
1.0
  9
$DIMGAP
 40
0.09
  9
$DIMJUST
 70
     0
  9
$DIMSD1
 70
     0
  9
$DIMSD2
 70
     0
  9
$DIMTOLJ
 70
     1
  9
$DIMTZIN
 70
     0
  9
$DIMALTZ
 70
     0
  9
$DIMALTTZ
 70
     0
  9
$DIMUPT
 70
     0
  9
$DIMDEC
 70
     4
  9
$DIMTDEC
 70
     4
  9
$DIMALTU
 70
     2
  9
$DIMALTTD
 70
     2
  9
$DIMTXSTY
  7
Standard
  9
$DIMAUNIT
 70
     0
  9
$DIMADEC
 70
     0
  9
$DIMALTRND
 40
0.0
  9
$DIMAZIN
 70
     0
  9
$DIMDSEP
 70
    46
  9
$DIMATFIT
 70
     3
  9
$DIMFRAC
 70
     0
  9
$DIMLDRBLK
  1

  9
$DIMLUNIT
 70
     2
  9
$DIMLWD
 70
    -2
  9
$DIMLWE
 70
    -2
  9
$DIMTMOVE
 70
     0
  9
$DIMFXL
 40
1.0
  9
$DIMFXLON
 70
     0
  9
$DIMJOGANG
 40
0.7853981633974483
  9
$DIMTFILL
 70
     0
  9
$DIMTFILLCLR
 70
     0
  9
$DIMARCSYM
 70
     0
  9
$DIMLTYPE
  6

  9
$DIMLTEX1
  6

  9
$DIMLTEX2
  6

  9
$LUNITS
 70
     2
  9
$LUPREC
 70
     4
  9
$SKETCHINC
 40
0.1
  9
$FILLETRAD
 40
0.5
  9
$AUNITS
 70
     0
  9
$AUPREC
 70
     0
  9
$MENU
  1
.
  9
$ELEVATION
 40
0.0
  9
$PELEVATION
 40
0.0
  9
$THICKNESS
 40
0.0
  9
$LIMCHECK
 70
     0
  9
$CHAMFERA
 40
0.0
  9
$CHAMFERB
 40
0.0
  9
$CHAMFERC
 40
0.0
  9
$CHAMFERD
 40
0.0
  9
$SKPOLY
 70
     0
  9
$TDCREATE
 40
2457805.96588235
  9
$TDUCREATE
 40
2457805.84088235
  9
$TDUPDATE
 40
2457805.965882373
  9
$TDUUPDATE
 40
2457805.840882373
  9
$TDINDWG
 40
0.0000000116
  9
$TDUSRTIMER
 40
0.0000000116
  9
$USRTIMER
 70
     1
  9
$ANGBASE
 50
0.0
  9
$ANGDIR
 70
     0
  9
$PDMODE
 70
     0
  9
$PDSIZE
 40
0.0
  9
$PLINEWID
 40
0.0
  9
$SPLFRAME
 70
     0
  9
$SPLINETYPE
 70
     6
  9
$SPLINESEGS
 70
     8
  9
$HANDSEED
  5
BF
  9
$SURFTAB1
 70
     6
  9
$SURFTAB2
 70
     6
  9
$SURFTYPE
 70
     6
  9
$SURFU
 70
     6
  9
$SURFV
 70
     6
  9
$UCSBASE
  2

  9
$UCSNAME
  2

  9
$UCSORG
 10
0.0
 20
0.0
 30
0.0
  9
$UCSXDIR
 10
1.0
 20
0.0
 30
0.0
  9
$UCSYDIR
 10
0.0
 20
1.0
 30
0.0
  9
$UCSORTHOREF
  2

  9
$UCSORTHOVIEW
 70
     0
  9
$UCSORGTOP
 10
0.0
 20
0.0
 30
0.0
  9
$UCSORGBOTTOM
 10
0.0
 20
0.0
 30
0.0
  9
$UCSORGLEFT
 10
0.0
 20
0.0
 30
0.0
  9
$UCSORGRIGHT
 10
0.0
 20
0.0
 30
0.0
  9
$UCSORGFRONT
 10
0.0
 20
0.0
 30
0.0
  9
$UCSORGBACK
 10
0.0
 20
0.0
 30
0.0
  9
$PUCSBASE
  2

  9
$PUCSNAME
  2

  9
$PUCSORG
 10
0.0
 20
0.0
 30
0.0
  9
$PUCSXDIR
 10
1.0
 20
0.0
 30
0.0
  9
$PUCSYDIR
 10
0.0
 20
1.0
 30
0.0
  9
$PUCSORTHOREF
  2

  9
$PUCSORTHOVIEW
 70
     0
  9
$PUCSORGTOP
 10
0.0
 20
0.0
 30
0.0
  9
$PUCSORGBOTTOM
 10
0.0
 20
0.0
 30
0.0
  9
$PUCSORGLEFT
 10
0.0
 20
0.0
 30
0.0
  9
$PUCSORGRIGHT
 10
0.0
 20
0.0
 30
0.0
  9
$PUCSORGFRONT
 10
0.0
 20
0.0
 30
0.0
  9
$PUCSORGBACK
 10
0.0
 20
0.0
 30
0.0
  9
$USERI1
 70
     0
  9
$USERI2
 70
     0
  9
$USERI3
 70
     0
  9
$USERI4
 70
     0
  9
$USERI5
 70
     0
  9
$USERR1
 40
0.0
  9
$USERR2
 40
0.0
  9
$USERR3
 40
0.0
  9
$USERR4
 40
0.0
  9
$USERR5
 40
0.0
  9
$WORLDVIEW
 70
     1
  9
$SHADEDGE
 70
     3
  9
$SHADEDIF
 70
    70
  9
$TILEMODE
 70
     1
  9
$MAXACTVP
 70
    64
  9
$PINSBASE
 10
0.0
 20
0.0
 30
0.0
  9
$PLIMCHECK
 70
     0
  9
$PEXTMIN
 10
1.000000000000000E+20
 20
1.000000000000000E+20
 30
1.000000000000000E+20
  9
$PEXTMAX
 10
-1.000000000000000E+20
 20
-1.000000000000000E+20
 30
-1.000000000000000E+20
  9
$PLIMMIN
 10
0.0
 20
0.0
  9
$PLIMMAX
 10
12.0
 20
9.0
  9
$UNITMODE
 70
     0
  9
$VISRETAIN
 70
     1
  9
$PLINEGEN
 70
     0
  9
$PSLTSCALE
 70
     1
  9
$TREEDEPTH
 70
  3020
  9
$CMLSTYLE
  2
Standard
  9
$CMLJUST
 70
     0
  9
$CMLSCALE
 40
1.0
  9
$PROXYGRAPHICS
 70
     1
  9
$MEASUREMENT
 70
     0
  9
$CELWEIGHT
370
    -1
  9
$ENDCAPS
280
     0
  9
$JOINSTYLE
280
     0
  9
$LWDISPLAY
290
     0
  9
$INSUNITS
 70
     4
  9
$HYPERLINKBASE
  1

  9
$STYLESHEET
  1

  9
$XEDIT
290
     1
  9
$CEPSNTYPE
380
     0
  9
$PSTYLEMODE
290
     1
  9
$FINGERPRINTGUID
  2
{52C90826-2465-4262-AA49-EFFFAF1AF9F9}
  9
$VERSIONGUID
  2
{FAEB1C32-E019-11D5-929B-00C0DF256EC4}
  9
$EXTNAMES
290
     1
  9
$PSVPSCALE
 40
0.0
  9
$OLESTARTUP
290
     0
  9
$SORTENTS
280
   127
  9
$INDEXCTL
280
     0
  9
$HIDETEXT
280
     1
  9
$XCLIPFRAME
290
     0
  9
$HALOGAP
280
     0
  9
$OBSCOLOR
 70
   257
  9
$OBSLTYPE
280
     0
  9
$INTERSECTIONDISPLAY
280
     0
  9
$INTERSECTIONCOLOR
 70
   257
  9
$DIMASSOC
280
     2
  9
$PROJECTNAME
  1

  9
$CAMERADISPLAY
290
     0
  9
$LENSLENGTH
 40
50.0
  9
$CAMERAHEIGHT
 40
0.0
  9
$STEPSPERSEC
 40
2.0
  9
$STEPSIZE
 40
6.0
  9
$3DDWFPREC
 40
2.0
  9
$PSOLWIDTH
 40
0.25
  9
$PSOLHEIGHT
 40
4.0
  9
$LOFTANG1
 40
1.570796326794897
  9
$LOFTANG2
 40
1.570796326794897
  9
$LOFTMAG1
 40
0.0
  9
$LOFTMAG2
 40
0.0
  9
$LOFTPARAM
 70
     7
  9
$LOFTNORMALS
280
     1
  9
$LATITUDE
 40
37.795
  9
$LONGITUDE
 40
-122.394
  9
$NORTHDIRECTION
 40
0.0
  9
$TIMEZONE
 70
 -8000
  9
$LIGHTGLYPHDISPLAY
280
     1
  9
$TILEMODELIGHTSYNCH
280
     1
  9
$CMATERIAL
347
44
  9
$SOLIDHIST
280
     0
  9
$SHOWHIST
280
     1
  9
$DWFFRAME
280
     2
  9
$DGNFRAME
280
     2
  9
$REALWORLDSCALE
290
     1
  9
$INTERFERECOLOR
 62
   256
  9
$CSHADOW
280
     0
  9
$SHADOWPLANELOCATION
 40
0.0
  0
ENDSEC
  0
SECTION
  2
CLASSES
  0
CLASS
  1
ACDBDICTIONARYWDFLT
  2
AcDbDictionaryWithDefault
  3
ObjectDBX Classes
 90
        0
 91
        4
280
     0
281
     0
  0
CLASS
  1
VISUALSTYLE
  2
AcDbVisualStyle
  3
ObjectDBX Classes
 90
     4095
 91
        4
280
     0
281
     0
  0
CLASS
  1
MATERIAL
  2
AcDbMaterial
  3
ObjectDBX Classes
 90
     1153
 91
        4
280
     0
281
     0
  0
CLASS
  1
SCALE
  2
AcDbScale
  3
ObjectDBX Classes
 90
     1153
 91
        4
280
     0
281
     0
  0
CLASS
  1
TABLESTYLE
  2
AcDbTableStyle
  3
ObjectDBX Classes
 90
     4095
 91
        4
280
     0
281
     0
  0
CLASS
  1
MLEADERSTYLE
  2
AcDbMLeaderStyle
  3
ACDB_MLEADERSTYLE_CLASS
 90
     4095
 91
        4
280
     0
281
     0
  0
CLASS
  1
SUN
  2
AcDbSun
  3
SCENEOE
 90
     1153
 91
        4
280
     0
281
     0
  0
CLASS
  1
DICTIONARYVAR
  2
AcDbDictionaryVar
  3
ObjectDBX Classes
 90
        0
 91
        4
280
     0
281
     0
  0
CLASS
  1
CELLSTYLEMAP
  2
AcDbCellStyleMap
  3
ObjectDBX Classes
 90
     1152
 91
        4
280
     0
281
     0
  0
ENDSEC
  0
SECTION
  2
TABLES
  0
TABLE
  2
VPORT
  5
8
330
0
100
AcDbSymbolTable
 70
     1
  0
VPORT
  5
29
330
8
100
AcDbSymbolTableRecord
100
AcDbViewportTableRecord
  2
*Active
 70
     0
 10
0.0
 20
0.0
 11
1.0
 21
1.0
 12
10.42990654205607
 22
4.5
 13
0.0
 23
0.0
 14
0.5
 24
0.5
 15
0.5
 25
0.5
 16
0.0
 26
0.0
 36
1.0
 17
0.0
 27
0.0
 37
0.0
 40
9.0
 41
1.972972972850329
 42
50.0
 43
0.0
 44
0.0
 50
0.0
 51
0.0
 71
     0
 72
   100
 73
     1
 74
     3
 75
     0
 76
     0
 77
     0
 78
     0
281
     0
 65
     1
110
0.0
120
0.0
130
0.0
111
1.0
121
0.0
131
0.0
112
0.0
122
1.0
132
0.0
 79
     0
146
0.0
348
2F
 60
     3
 61
     5
292
     1
282
     1
141
0.0
142
0.0
 63
   250
361
6D
  0
ENDTAB
  0
TABLE
  2
LTYPE
  5
5
330
0
100
AcDbSymbolTable
 70
     1
  0
LTYPE
  5
14
330
5
100
AcDbSymbolTableRecord
100
AcDbLinetypeTableRecord
  2
ByBlock
 70
     0
  3

 72
    65
 73
     0
 40
0.0
  0
LTYPE
  5
15
330
5
100
AcDbSymbolTableRecord
100
AcDbLinetypeTableRecord
  2
ByLayer
 70
     0
  3

 72
    65
 73
     0
 40
0.0
  0
LTYPE
  5
16
330
5
100
AcDbSymbolTableRecord
100
AcDbLinetypeTableRecord
  2
Continuous
 70
     0
  3
Solid line
 72
    65
 73
     0
 40
0.0
  0
ENDTAB
  0
TABLE
  2
LAYER
  5
2
330
0
100
AcDbSymbolTable
 70
     2
  0
LAYER
  5
10
330
2
100
AcDbSymbolTableRecord
100
AcDbLayerTableRecord
  2
0
 70
     0
 62
     7
  6
Continuous
370
    -3
390
F
347
46
  0
LAYER
  5
6F
330
2
100
AcDbSymbolTableRecord
100
AcDbLayerTableRecord
  2
layer 1
 70
     0
 62
     7
  6
Continuous
370
    -3
390
F
347
46
  0
ENDTAB
  0
TABLE
  2
STYLE
  5
3
330
0
100
AcDbSymbolTable
 70
     1
  0
STYLE
  5
11
330
3
100
AcDbSymbolTableRecord
100
AcDbTextStyleTableRecord
  2
Standard
 70
     0
 40
0.0
 41
1.0
 50
0.0
 71
     0
 42
0.2
  3
txt
  4

  0
ENDTAB
  0
TABLE
  2
VIEW
  5
6
330
0
100
AcDbSymbolTable
 70
     0
  0
ENDTAB
  0
TABLE
  2
UCS
  5
7
330
0
100
AcDbSymbolTable
 70
     0
  0
ENDTAB
  0
TABLE
  2
APPID
  5
9
330
0
100
AcDbSymbolTable
 70
     3
  0
APPID
  5
12
330
9
100
AcDbSymbolTableRecord
100
AcDbRegAppTableRecord
  2
ACAD
 70
     0
  0
APPID
  5
6E
330
9
100
AcDbSymbolTableRecord
100
AcDbRegAppTableRecord
  2
ODA
 70
     0
  0
APPID
  5
B7
330
9
100
AcDbSymbolTableRecord
100
AcDbRegAppTableRecord
  2
ACAD_MLEADERVER
 70
     0
  0
ENDTAB
  0
TABLE
  2
DIMSTYLE
  5
A
330
0
100
AcDbSymbolTable
 70
     1
100
AcDbDimStyleTable
  0
DIMSTYLE
105
27
330
A
100
AcDbSymbolTableRecord
100
AcDbDimStyleTableRecord
  2
Standard
 70
     0
178
     0
340
11
  0
ENDTAB
  0
TABLE
  2
BLOCK_RECORD
  5
1
330
0
100
AcDbSymbolTable
 70
     1
  0
BLOCK_RECORD
  5
1F
330
1
100
AcDbSymbolTableRecord
100
AcDbBlockTableRecord
  2
*Model_Space
340
22
 70
     0
280
     1
281
     0
  0
BLOCK_RECORD
  5
1B
330
1
100
AcDbSymbolTableRecord
100
AcDbBlockTableRecord
  2
*Paper_Space
340
1E
 70
     0
280
     1
281
     0
  0
BLOCK_RECORD
  5
23
330
1
100
AcDbSymbolTableRecord
100
AcDbBlockTableRecord
  2
*Paper_Space0
340
26
 70
     0
280
     1
281
     0
  0
ENDTAB
  0
ENDSEC
  0
SECTION
  2
BLOCKS
  0
BLOCK
  5
20
330
1F
100
AcDbEntity
  8
0
100
AcDbBlockBegin
  2
*Model_Space
 70
     0
 10
0.0
 20
0.0
 30
0.0
  3
*Model_Space
  1

  0
ENDBLK
  5
21
330
1F
100
AcDbEntity
  8
0
100
AcDbBlockEnd
  0
BLOCK
  5
1C
330
1B
100
AcDbEntity
 67
     1
  8
0
100
AcDbBlockBegin
  2
*Paper_Space
 70
     0
 10
0.0
 20
0.0
 30
0.0
  3
*Paper_Space
  1

  0
ENDBLK
  5
1D
330
1B
100
AcDbEntity
 67
     1
  8
0
100
AcDbBlockEnd
  0
BLOCK
  5
24
330
23
100
AcDbEntity
  8
0
100
AcDbBlockBegin
  2
*Paper_Space0
 70
     0
 10
0.0
 20
0.0
 30
0.0
  3
*Paper_Space0
  1

  0
ENDBLK
  5
25
330
23
100
AcDbEntity
  8
0
100
AcDbBlockEnd
  0
ENDSEC
  0
SECTION
  2
ENTITIES
  0
SPLINE
  5
70
330
1F
100
AcDbEntity
  8
layer 1
 62
     7
100
AcDbSpline
210
0.0
220
0.0
230
1.0
 70
    11
 71
     3
 72
   328
 73
   324
 74
     0
 42
0.000000001
 43
0.0000000001
 40
0.0
 40
0.0
 40
0.0
 40
0.0
 40
0.0121951219512195
 40
0.0121951219512195
 40
0.0121951219512195
 40
0.0121951219512195
 40
0.024390243902439
 40
0.024390243902439
 40
0.024390243902439
 40
0.024390243902439
 40
0.0365853658536585
 40
0.0365853658536585
 40
0.0365853658536585
 40
0.0365853658536585
 40
0.0487804878048781
 40
0.0487804878048781
 40
0.0487804878048781
 40
0.0487804878048781
 40
0.0609756097560976
 40
0.0609756097560976
 40
0.0609756097560976
 40
0.0609756097560976
 40
0.0731707317073171
 40
0.0731707317073171
 40
0.0731707317073171
 40
0.0731707317073171
 40
0.0853658536585366
 40
0.0853658536585366
 40
0.0853658536585366
 40
0.0853658536585366
 40
0.0975609756097561
 40
0.0975609756097561
 40
0.0975609756097561
 40
0.0975609756097561
 40
0.1097560975609756
 40
0.1097560975609756
 40
0.1097560975609756
 40
0.1097560975609756
 40
0.1219512195121951
 40
0.1219512195121951
 40
0.1219512195121951
 40
0.1219512195121951
 40
0.1341463414634146
 40
0.1341463414634146
 40
0.1341463414634146
 40
0.1341463414634146
 40
0.1463414634146341
 40
0.1463414634146341
 40
0.1463414634146341
 40
0.1463414634146341
 40
0.1585365853658537
 40
0.1585365853658537
 40
0.1585365853658537
 40
0.1585365853658537
 40
0.1707317073170732
 40
0.1707317073170732
 40
0.1707317073170732
 40
0.1707317073170732
 40
0.1829268292682927
 40
0.1829268292682927
 40
0.1829268292682927
 40
0.1829268292682927
 40
0.1951219512195122
 40
0.1951219512195122
 40
0.1951219512195122
 40
0.1951219512195122
 40
0.2073170731707317
 40
0.2073170731707317
 40
0.2073170731707317
 40
0.2073170731707317
 40
0.2195121951219512
 40
0.2195121951219512
 40
0.2195121951219512
 40
0.2195121951219512
 40
0.2317073170731707
 40
0.2317073170731707
 40
0.2317073170731707
 40
0.2317073170731707
 40
0.2439024390243902
 40
0.2439024390243902
 40
0.2439024390243902
 40
0.2439024390243902
 40
0.2560975609756098
 40
0.2560975609756098
 40
0.2560975609756098
 40
0.2560975609756098
 40
0.2682926829268293
 40
0.2682926829268293
 40
0.2682926829268293
 40
0.2682926829268293
 40
0.2804878048780488
 40
0.2804878048780488
 40
0.2804878048780488
 40
0.2804878048780488
 40
0.2926829268292683
 40
0.2926829268292683
 40
0.2926829268292683
 40
0.2926829268292683
 40
0.3048780487804878
 40
0.3048780487804878
 40
0.3048780487804878
 40
0.3048780487804878
 40
0.3170731707317073
 40
0.3170731707317073
 40
0.3170731707317073
 40
0.3170731707317073
 40
0.3292682926829268
 40
0.3292682926829268
 40
0.3292682926829268
 40
0.3292682926829268
 40
0.3414634146341464
 40
0.3414634146341464
 40
0.3414634146341464
 40
0.3414634146341464
 40
0.3536585365853658
 40
0.3536585365853658
 40
0.3536585365853658
 40
0.3536585365853658
 40
0.3658536585365854
 40
0.3658536585365854
 40
0.3658536585365854
 40
0.3658536585365854
 40
0.3780487804878049
 40
0.3780487804878049
 40
0.3780487804878049
 40
0.3780487804878049
 40
0.3902439024390244
 40
0.3902439024390244
 40
0.3902439024390244
 40
0.3902439024390244
 40
0.4024390243902439
 40
0.4024390243902439
 40
0.4024390243902439
 40
0.4024390243902439
 40
0.4146341463414634
 40
0.4146341463414634
 40
0.4146341463414634
 40
0.4146341463414634
 40
0.4268292682926829
 40
0.4268292682926829
 40
0.4268292682926829
 40
0.4268292682926829
 40
0.4390243902439024
 40
0.4390243902439024
 40
0.4390243902439024
 40
0.4390243902439024
 40
0.451219512195122
 40
0.451219512195122
 40
0.451219512195122
 40
0.451219512195122
 40
0.4634146341463415
 40
0.4634146341463415
 40
0.4634146341463415
 40
0.4634146341463415
 40
0.475609756097561
 40
0.475609756097561
 40
0.475609756097561
 40
0.475609756097561
 40
0.4878048780487805
 40
0.4878048780487805
 40
0.4878048780487805
 40
0.4878048780487805
 40
0.5
 40
0.5
 40
0.5
 40
0.5
 40
0.5121951219512195
 40
0.5121951219512195
 40
0.5121951219512195
 40
0.5121951219512195
 40
0.524390243902439
 40
0.524390243902439
 40
0.524390243902439
 40
0.524390243902439
 40
0.5365853658536586
 40
0.5365853658536586
 40
0.5365853658536586
 40
0.5365853658536586
 40
0.5487804878048781
 40
0.5487804878048781
 40
0.5487804878048781
 40
0.5487804878048781
 40
0.5609756097560976
 40
0.5609756097560976
 40
0.5609756097560976
 40
0.5609756097560976
 40
0.573170731707317
 40
0.573170731707317
 40
0.573170731707317
 40
0.573170731707317
 40
0.5853658536585366
 40
0.5853658536585366
 40
0.5853658536585366
 40
0.5853658536585366
 40
0.5975609756097561
 40
0.5975609756097561
 40
0.5975609756097561
 40
0.5975609756097561
 40
0.6097560975609756
 40
0.6097560975609756
 40
0.6097560975609756
 40
0.6097560975609756
 40
0.6219512195121951
 40
0.6219512195121951
 40
0.6219512195121951
 40
0.6219512195121951
 40
0.6341463414634146
 40
0.6341463414634146
 40
0.6341463414634146
 40
0.6341463414634146
 40
0.6463414634146342
 40
0.6463414634146342
 40
0.6463414634146342
 40
0.6463414634146342
 40
0.6585365853658537
 40
0.6585365853658537
 40
0.6585365853658537
 40
0.6585365853658537
 40
0.6707317073170732
 40
0.6707317073170732
 40
0.6707317073170732
 40
0.6707317073170732
 40
0.6829268292682927
 40
0.6829268292682927
 40
0.6829268292682927
 40
0.6829268292682927
 40
0.6951219512195121
 40
0.6951219512195121
 40
0.6951219512195121
 40
0.6951219512195121
 40
0.7073170731707317
 40
0.7073170731707317
 40
0.7073170731707317
 40
0.7073170731707317
 40
0.7195121951219512
 40
0.7195121951219512
 40
0.7195121951219512
 40
0.7195121951219512
 40
0.7317073170731707
 40
0.7317073170731707
 40
0.7317073170731707
 40
0.7317073170731707
 40
0.7439024390243902
 40
0.7439024390243902
 40
0.7439024390243902
 40
0.7439024390243902
 40
0.7560975609756098
 40
0.7560975609756098
 40
0.7560975609756098
 40
0.7560975609756098
 40
0.7682926829268293
 40
0.7682926829268293
 40
0.7682926829268293
 40
0.7682926829268293
 40
0.7804878048780488
 40
0.7804878048780488
 40
0.7804878048780488
 40
0.7804878048780488
 40
0.7926829268292683
 40
0.7926829268292683
 40
0.7926829268292683
 40
0.7926829268292683
 40
0.8048780487804879
 40
0.8048780487804879
 40
0.8048780487804879
 40
0.8048780487804879
 40
0.8170731707317073
 40
0.8170731707317073
 40
0.8170731707317073
 40
0.8170731707317073
 40
0.8292682926829268
 40
0.8292682926829268
 40
0.8292682926829268
 40
0.8292682926829268
 40
0.8414634146341463
 40
0.8414634146341463
 40
0.8414634146341463
 40
0.8414634146341463
 40
0.8536585365853658
 40
0.8536585365853658
 40
0.8536585365853658
 40
0.8536585365853658
 40
0.8658536585365854
 40
0.8658536585365854
 40
0.8658536585365854
 40
0.8658536585365854
 40
0.8780487804878049
 40
0.8780487804878049
 40
0.8780487804878049
 40
0.8780487804878049
 40
0.8902439024390244
 40
0.8902439024390244
 40
0.8902439024390244
 40
0.8902439024390244
 40
0.9024390243902439
 40
0.9024390243902439
 40
0.9024390243902439
 40
0.9024390243902439
 40
0.9146341463414634
 40
0.9146341463414634
 40
0.9146341463414634
 40
0.9146341463414634
 40
0.926829268292683
 40
0.926829268292683
 40
0.926829268292683
 40
0.926829268292683
 40
0.9390243902439024
 40
0.9390243902439024
 40
0.9390243902439024
 40
0.9390243902439024
 40
0.9512195121951219
 40
0.9512195121951219
 40
0.9512195121951219
 40
0.9512195121951219
 40
0.9634146341463414
 40
0.9634146341463414
 40
0.9634146341463414
 40
0.9634146341463414
 40
0.975609756097561
 40
0.975609756097561
 40
0.975609756097561
 40
0.975609756097561
 40
1.0
 40
1.0
 40
1.0
 40
1.0
 10
-267.8162
 20
110.5295
 30
0.0
 10
-267.8162
 20
110.5295
 30
0.0
 10
-267.8162
 20
24.5293
 30
0.0
 10
-267.8162
 20
24.5293
 30
0.0
 10
-267.8162
 20
24.5293
 30
0.0
 10
-267.8162
 20
21.2157
 30
0.0
 10
-265.1298
 20
18.5296
 30
0.0
 10
-261.8162
 20
18.5296
 30
0.0
 10
-261.8162
 20
18.5296
 30
0.0
 10
-261.8162
 20
18.5296
 30
0.0
 10
-261.8162
 20
33.5294
 30
0.0
 10
-261.8162
 20
33.5294
 30
0.0
 10
-261.8162
 20
33.5294
 30
0.0
 10
-261.8162
 20
33.5294
 30
0.0
 10
-255.8161
 20
33.5294
 30
0.0
 10
-255.8161
 20
33.5294
 30
0.0
 10
-255.8161
 20
33.5294
 30
0.0
 10
-255.8161
 20
33.5294
 30
0.0
 10
-255.8161
 20
18.5296
 30
0.0
 10
-255.8161
 20
18.5296
 30
0.0
 10
-255.8161
 20
18.5296
 30
0.0
 10
-255.8161
 20
18.5296
 30
0.0
 10
-244.565
 20
18.5296
 30
0.0
 10
-244.565
 20
18.5296
 30
0.0
 10
-244.565
 20
18.5296
 30
0.0
 10
-230.9336
 20
18.5296
 30
0.0
 10
-217.5821
 20
22.3993
 30
0.0
 10
-206.0632
 20
29.6887
 30
0.0
 10
-206.0632
 20
29.6887
 30
0.0
 10
-206.0632
 20
29.6887
 30
0.0
 10
-205.5044
 20
30.0334
 30
0.0
 10
-205.5044
 20
30.0334
 30
0.0
 10
-205.5044
 20
30.0334
 30
0.0
 10
-205.5044
 20
30.0334
 30
0.0
 10
-204.9216
 20
30.3752
 30
0.0
 10
-204.9216
 20
30.3752
 30
0.0
 10
-204.9216
 20
30.3752
 30
0.0
 10
-204.9216
 20
30.3752
 30
0.0
 10
-204.3151
 20
30.7135
 30
0.0
 10
-204.3151
 20
30.7135
 30
0.0
 10
-204.3151
 20
30.7135
 30
0.0
 10
-204.3151
 20
30.7135
 30
0.0
 10
-203.6844
 20
31.048
 30
0.0
 10
-203.6844
 20
31.048
 30
0.0
 10
-203.6844
 20
31.048
 30
0.0
 10
-203.6844
 20
31.048
 30
0.0
 10
-203.03
 20
31.3775
 30
0.0
 10
-203.03
 20
31.3775
 30
0.0
 10
-203.03
 20
31.3775
 30
0.0
 10
-203.03
 20
31.3775
 30
0.0
 10
-202.3516
 20
31.7017
 30
0.0
 10
-202.3516
 20
31.7017
 30
0.0
 10
-202.3516
 20
31.7017
 30
0.0
 10
-202.3516
 20
31.7017
 30
0.0
 10
-201.6489
 20
32.0202
 30
0.0
 10
-201.6489
 20
32.0202
 30
0.0
 10
-201.6489
 20
32.0202
 30
0.0
 10
-201.6489
 20
32.0202
 30
0.0
 10
-200.9225
 20
32.3324
 30
0.0
 10
-200.9225
 20
32.3324
 30
0.0
 10
-200.9225
 20
32.3324
 30
0.0
 10
-200.9225
 20
32.3324
 30
0.0
 10
-200.1725
 20
32.6379
 30
0.0
 10
-200.1725
 20
32.6379
 30
0.0
 10
-200.1725
 20
32.6379
 30
0.0
 10
-200.1725
 20
32.6379
 30
0.0
 10
-199.3988
 20
32.936
 30
0.0
 10
-199.3988
 20
32.936
 30
0.0
 10
-199.3988
 20
32.936
 30
0.0
 10
-199.3988
 20
32.936
 30
0.0
 10
-198.6023
 20
33.226
 30
0.0
 10
-198.6023
 20
33.226
 30
0.0
 10
-198.6023
 20
33.226
 30
0.0
 10
-198.6023
 20
33.226
 30
0.0
 10
-197.7828
 20
33.5072
 30
0.0
 10
-197.7828
 20
33.5072
 30
0.0
 10
-197.7828
 20
33.5072
 30
0.0
 10
-197.7828
 20
33.5072
 30
0.0
 10
-196.941
 20
33.7795
 30
0.0
 10
-196.941
 20
33.7795
 30
0.0
 10
-196.941
 20
33.7795
 30
0.0
 10
-196.941
 20
33.7795
 30
0.0
 10
-196.0774
 20
34.042
 30
0.0
 10
-196.0774
 20
34.042
 30
0.0
 10
-196.0774
 20
34.042
 30
0.0
 10
-196.0774
 20
34.042
 30
0.0
 10
-195.1927
 20
34.2939
 30
0.0
 10
-195.1927
 20
34.2939
 30
0.0
 10
-195.1927
 20
34.2939
 30
0.0
 10
-195.1927
 20
34.2939
 30
0.0
 10
-194.2871
 20
34.5352
 30
0.0
 10
-194.2871
 20
34.5352
 30
0.0
 10
-194.2871
 20
34.5352
 30
0.0
 10
-194.2871
 20
34.5352
 30
0.0
 10
-193.3621
 20
34.7648
 30
0.0
 10
-193.3621
 20
34.7648
 30
0.0
 10
-193.3621
 20
34.7648
 30
0.0
 10
-193.3621
 20
34.7648
 30
0.0
 10
-192.4181
 20
34.9825
 30
0.0
 10
-192.4181
 20
34.9825
 30
0.0
 10
-192.4181
 20
34.9825
 30
0.0
 10
-192.4181
 20
34.9825
 30
0.0
 10
-191.4557
 20
35.1875
 30
0.0
 10
-191.4557
 20
35.1875
 30
0.0
 10
-191.4557
 20
35.1875
 30
0.0
 10
-191.4557
 20
35.1875
 30
0.0
 10
-190.4764
 20
35.3797
 30
0.0
 10
-190.4764
 20
35.3797
 30
0.0
 10
-190.4764
 20
35.3797
 30
0.0
 10
-190.4764
 20
35.3797
 30
0.0
 10
-189.4808
 20
35.5586
 30
0.0
 10
-189.4808
 20
35.5586
 30
0.0
 10
-189.4808
 20
35.5586
 30
0.0
 10
-189.4808
 20
35.5586
 30
0.0
 10
-188.4701
 20
35.7233
 30
0.0
 10
-188.4701
 20
35.7233
 30
0.0
 10
-188.4701
 20
35.7233
 30
0.0
 10
-188.4701
 20
35.7233
 30
0.0
 10
-187.4457
 20
35.8736
 30
0.0
 10
-187.4457
 20
35.8736
 30
0.0
 10
-187.4457
 20
35.8736
 30
0.0
 10
-187.4457
 20
35.8736
 30
0.0
 10
-186.4089
 20
36.0094
 30
0.0
 10
-186.4089
 20
36.0094
 30
0.0
 10
-186.4089
 20
36.0094
 30
0.0
 10
-186.4089
 20
36.0094
 30
0.0
 10
-185.36
 20
36.1297
 30
0.0
 10
-185.36
 20
36.1297
 30
0.0
 10
-185.36
 20
36.1297
 30
0.0
 10
-185.36
 20
36.1297
 30
0.0
 10
-184.3017
 20
36.2348
 30
0.0
 10
-184.3017
 20
36.2348
 30
0.0
 10
-184.3017
 20
36.2348
 30
0.0
 10
-184.3017
 20
36.2348
 30
0.0
 10
-183.2342
 20
36.3245
 30
0.0
 10
-183.2342
 20
36.3245
 30
0.0
 10
-183.2342
 20
36.3245
 30
0.0
 10
-183.2342
 20
36.3245
 30
0.0
 10
-182.1596
 20
36.3978
 30
0.0
 10
-182.1596
 20
36.3978
 30
0.0
 10
-182.1596
 20
36.3978
 30
0.0
 10
-182.1596
 20
36.3978
 30
0.0
 10
-181.0791
 20
36.4553
 30
0.0
 10
-181.0791
 20
36.4553
 30
0.0
 10
-181.0791
 20
36.4553
 30
0.0
 10
-181.0791
 20
36.4553
 30
0.0
 10
-179.9939
 20
36.4966
 30
0.0
 10
-179.9939
 20
36.4966
 30
0.0
 10
-179.9939
 20
36.4966
 30
0.0
 10
-179.9939
 20
36.4966
 30
0.0
 10
-178.9056
 20
36.5213
 30
0.0
 10
-178.9056
 20
36.5213
 30
0.0
 10
-178.9056
 20
36.5213
 30
0.0
 10
-178.9056
 20
36.5213
 30
0.0
 10
-177.8162
 20
36.5294
 30
0.0
 10
-177.8162
 20
36.5294
 30
0.0
 10
-177.8162
 20
36.5294
 30
0.0
 10
-177.8162
 20
36.5294
 30
0.0
 10
-176.7265
 20
36.5213
 30
0.0
 10
-176.7265
 20
36.5213
 30
0.0
 10
-176.7265
 20
36.5213
 30
0.0
 10
-176.7265
 20
36.5213
 30
0.0
 10
-175.6385
 20
36.4966
 30
0.0
 10
-175.6385
 20
36.4966
 30
0.0
 10
-175.6385
 20
36.4966
 30
0.0
 10
-175.6385
 20
36.4966
 30
0.0
 10
-174.5534
 20
36.4553
 30
0.0
 10
-174.5534
 20
36.4553
 30
0.0
 10
-174.5534
 20
36.4553
 30
0.0
 10
-174.5534
 20
36.4553
 30
0.0
 10
-173.4728
 20
36.3978
 30
0.0
 10
-173.4728
 20
36.3978
 30
0.0
 10
-173.4728
 20
36.3978
 30
0.0
 10
-173.4728
 20
36.3978
 30
0.0
 10
-172.3983
 20
36.3245
 30
0.0
 10
-172.3983
 20
36.3245
 30
0.0
 10
-172.3983
 20
36.3245
 30
0.0
 10
-172.3983
 20
36.3245
 30
0.0
 10
-171.3308
 20
36.2348
 30
0.0
 10
-171.3308
 20
36.2348
 30
0.0
 10
-171.3308
 20
36.2348
 30
0.0
 10
-171.3308
 20
36.2348
 30
0.0
 10
-170.2721
 20
36.1297
 30
0.0
 10
-170.2721
 20
36.1297
 30
0.0
 10
-170.2721
 20
36.1297
 30
0.0
 10
-170.2721
 20
36.1297
 30
0.0
 10
-169.2236
 20
36.0094
 30
0.0
 10
-169.2236
 20
36.0094
 30
0.0
 10
-169.2236
 20
36.0094
 30
0.0
 10
-169.2236
 20
36.0094
 30
0.0
 10
-168.1865
 20
35.8736
 30
0.0
 10
-168.1865
 20
35.8736
 30
0.0
 10
-168.1865
 20
35.8736
 30
0.0
 10
-168.1865
 20
35.8736
 30
0.0
 10
-167.162
 20
35.7233
 30
0.0
 10
-167.162
 20
35.7233
 30
0.0
 10
-167.162
 20
35.7233
 30
0.0
 10
-167.162
 20
35.7233
 30
0.0
 10
-166.1516
 20
35.5586
 30
0.0
 10
-166.1516
 20
35.5586
 30
0.0
 10
-166.1516
 20
35.5586
 30
0.0
 10
-166.1516
 20
35.5586
 30
0.0
 10
-165.1561
 20
35.3797
 30
0.0
 10
-165.1561
 20
35.3797
 30
0.0
 10
-165.1561
 20
35.3797
 30
0.0
 10
-165.1561
 20
35.3797
 30
0.0
 10
-164.1768
 20
35.1875
 30
0.0
 10
-164.1768
 20
35.1875
 30
0.0
 10
-164.1768
 20
35.1875
 30
0.0
 10
-164.1768
 20
35.1875
 30
0.0
 10
-163.2144
 20
34.9825
 30
0.0
 10
-163.2144
 20
34.9825
 30
0.0
 10
-163.2144
 20
34.9825
 30
0.0
 10
-163.2144
 20
34.9825
 30
0.0
 10
-162.2704
 20
34.7648
 30
0.0
 10
-162.2704
 20
34.7648
 30
0.0
 10
-162.2704
 20
34.7648
 30
0.0
 10
-162.2704
 20
34.7648
 30
0.0
 10
-161.3454
 20
34.5352
 30
0.0
 10
-161.3454
 20
34.5352
 30
0.0
 10
-161.3454
 20
34.5352
 30
0.0
 10
-161.3454
 20
34.5352
 30
0.0
 10
-160.4398
 20
34.2939
 30
0.0
 10
-160.4398
 20
34.2939
 30
0.0
 10
-160.4398
 20
34.2939
 30
0.0
 10
-160.4398
 20
34.2939
 30
0.0
 10
-159.5551
 20
34.042
 30
0.0
 10
-159.5551
 20
34.042
 30
0.0
 10
-159.5551
 20
34.042
 30
0.0
 10
-159.5551
 20
34.042
 30
0.0
 10
-158.6915
 20
33.7795
 30
0.0
 10
-158.6915
 20
33.7795
 30
0.0
 10
-158.6915
 20
33.7795
 30
0.0
 10
-158.6915
 20
33.7795
 30
0.0
 10
-157.8497
 20
33.5072
 30
0.0
 10
-157.8497
 20
33.5072
 30
0.0
 10
-157.8497
 20
33.5072
 30
0.0
 10
-157.8497
 20
33.5072
 30
0.0
 10
-157.0302
 20
33.226
 30
0.0
 10
-157.0302
 20
33.226
 30
0.0
 10
-157.0302
 20
33.226
 30
0.0
 10
-157.0302
 20
33.226
 30
0.0
 10
-156.2337
 20
32.936
 30
0.0
 10
-156.2337
 20
32.936
 30
0.0
 10
-156.2337
 20
32.936
 30
0.0
 10
-156.2337
 20
32.936
 30
0.0
 10
-155.46
 20
32.6379
 30
0.0
 10
-155.46
 20
32.6379
 30
0.0
 10
-155.46
 20
32.6379
 30
0.0
 10
-155.46
 20
32.6379
 30
0.0
 10
-154.71
 20
32.3324
 30
0.0
 10
-154.71
 20
32.3324
 30
0.0
 10
-154.71
 20
32.3324
 30
0.0
 10
-154.71
 20
32.3324
 30
0.0
 10
-153.9836
 20
32.0202
 30
0.0
 10
-153.9836
 20
32.0202
 30
0.0
 10
-153.9836
 20
32.0202
 30
0.0
 10
-153.9836
 20
32.0202
 30
0.0
 10
-153.2809
 20
31.7017
 30
0.0
 10
-153.2809
 20
31.7017
 30
0.0
 10
-153.2809
 20
31.7017
 30
0.0
 10
-153.2809
 20
31.7017
 30
0.0
 10
-152.6025
 20
31.3775
 30
0.0
 10
-152.6025
 20
31.3775
 30
0.0
 10
-152.6025
 20
31.3775
 30
0.0
 10
-152.6025
 20
31.3775
 30
0.0
 10
-151.9478
 20
31.048
 30
0.0
 10
-151.9478
 20
31.048
 30
0.0
 10
-151.9478
 20
31.048
 30
0.0
 10
-151.9478
 20
31.048
 30
0.0
 10
-151.3173
 20
30.7135
 30
0.0
 10
-151.3173
 20
30.7135
 30
0.0
 10
-151.3173
 20
30.7135
 30
0.0
 10
-151.3173
 20
30.7135
 30
0.0
 10
-150.7109
 20
30.3752
 30
0.0
 10
-150.7109
 20
30.3752
 30
0.0
 10
-150.7109
 20
30.3752
 30
0.0
 10
-150.7109
 20
30.3752
 30
0.0
 10
-150.1281
 20
30.0334
 30
0.0
 10
-150.1281
 20
30.0334
 30
0.0
 10
-150.1281
 20
30.0334
 30
0.0
 10
-150.1281
 20
30.0334
 30
0.0
 10
-149.569
 20
29.6887
 30
0.0
 10
-149.569
 20
29.6887
 30
0.0
 10
-149.569
 20
29.6887
 30
0.0
 10
-138.0504
 20
22.3993
 30
0.0
 10
-124.6988
 20
18.5296
 30
0.0
 10
-111.0675
 20
18.5296
 30
0.0
 10
-111.0675
 20
18.5296
 30
0.0
 10
-111.0675
 20
18.5296
 30
0.0
 10
-99.8164
 20
18.5296
 30
0.0
 10
-99.8164
 20
18.5296
 30
0.0
 10
-99.8164
 20
18.5296
 30
0.0
 10
-99.8164
 20
18.5296
 30
0.0
 10
-99.8164
 20
33.5294
 30
0.0
 10
-99.8164
 20
33.5294
 30
0.0
 10
-99.8164
 20
33.5294
 30
0.0
 10
-99.8164
 20
33.5294
 30
0.0
 10
-93.8163
 20
33.5294
 30
0.0
 10
-93.8163
 20
33.5294
 30
0.0
 10
-93.8163
 20
33.5294
 30
0.0
 10
-93.8163
 20
33.5294
 30
0.0
 10
-93.8163
 20
18.5296
 30
0.0
 10
-93.8163
 20
18.5296
 30
0.0
 10
-93.8163
 20
18.5296
 30
0.0
 10
-90.5023
 20
18.5296
 30
0.0
 10
-87.8163
 20
21.2157
 30
0.0
 10
-87.8163
 20
24.5293
 30
0.0
 10
-87.8163
 20
24.5293
 30
0.0
 10
-87.8163
 20
24.5293
 30
0.0
 10
-87.8163
 20
110.5295
 30
0.0
 10
-87.8163
 20
110.5295
 30
0.0
 10
-87.8163
 20
110.5295
 30
0.0
 10
-87.8163
 20
120.4708
 30
0.0
 10
-95.8751
 20
128.5296
 30
0.0
 10
-105.8161
 20
128.5296
 30
0.0
 10
-105.8161
 20
128.5296
 30
0.0
 10
-105.8161
 20
128.5296
 30
0.0
 10
-249.8161
 20
128.5296
 30
0.0
 10
-249.8161
 20
128.5296
 30
0.0
 10
-249.8161
 20
128.5296
 30
0.0
 10
-259.7573
 20
128.5296
 30
0.0
 10
-267.8162
 20
120.4708
 30
0.0
 10
-267.8162
 20
110.5295
 30
0.0
  0
SPLINE
  5
71
330
1F
100
AcDbEntity
  8
layer 1
370
    35
100
AcDbSpline
210
0.0
220
0.0
230
1.0
 70
    11
 71
     3
 72
   328
 73
   324
 74
     0
 42
0.000000001
 43
0.0000000001
 40
0.0
 40
0.0
 40
0.0
 40
0.0
 40
0.0121951219512195
 40
0.0121951219512195
 40
0.0121951219512195
 40
0.0121951219512195
 40
0.024390243902439
 40
0.024390243902439
 40
0.024390243902439
 40
0.024390243902439
 40
0.0365853658536585
 40
0.0365853658536585
 40
0.0365853658536585
 40
0.0365853658536585
 40
0.0487804878048781
 40
0.0487804878048781
 40
0.0487804878048781
 40
0.0487804878048781
 40
0.0609756097560976
 40
0.0609756097560976
 40
0.0609756097560976
 40
0.0609756097560976
 40
0.0731707317073171
 40
0.0731707317073171
 40
0.0731707317073171
 40
0.0731707317073171
 40
0.0853658536585366
 40
0.0853658536585366
 40
0.0853658536585366
 40
0.0853658536585366
 40
0.0975609756097561
 40
0.0975609756097561
 40
0.0975609756097561
 40
0.0975609756097561
 40
0.1097560975609756
 40
0.1097560975609756
 40
0.1097560975609756
 40
0.1097560975609756
 40
0.1219512195121951
 40
0.1219512195121951
 40
0.1219512195121951
 40
0.1219512195121951
 40
0.1341463414634146
 40
0.1341463414634146
 40
0.1341463414634146
 40
0.1341463414634146
 40
0.1463414634146341
 40
0.1463414634146341
 40
0.1463414634146341
 40
0.1463414634146341
 40
0.1585365853658537
 40
0.1585365853658537
 40
0.1585365853658537
 40
0.1585365853658537
 40
0.1707317073170732
 40
0.1707317073170732
 40
0.1707317073170732
 40
0.1707317073170732
 40
0.1829268292682927
 40
0.1829268292682927
 40
0.1829268292682927
 40
0.1829268292682927
 40
0.1951219512195122
 40
0.1951219512195122
 40
0.1951219512195122
 40
0.1951219512195122
 40
0.2073170731707317
 40
0.2073170731707317
 40
0.2073170731707317
 40
0.2073170731707317
 40
0.2195121951219512
 40
0.2195121951219512
 40
0.2195121951219512
 40
0.2195121951219512
 40
0.2317073170731707
 40
0.2317073170731707
 40
0.2317073170731707
 40
0.2317073170731707
 40
0.2439024390243902
 40
0.2439024390243902
 40
0.2439024390243902
 40
0.2439024390243902
 40
0.2560975609756098
 40
0.2560975609756098
 40
0.2560975609756098
 40
0.2560975609756098
 40
0.2682926829268293
 40
0.2682926829268293
 40
0.2682926829268293
 40
0.2682926829268293
 40
0.2804878048780488
 40
0.2804878048780488
 40
0.2804878048780488
 40
0.2804878048780488
 40
0.2926829268292683
 40
0.2926829268292683
 40
0.2926829268292683
 40
0.2926829268292683
 40
0.3048780487804878
 40
0.3048780487804878
 40
0.3048780487804878
 40
0.3048780487804878
 40
0.3170731707317073
 40
0.3170731707317073
 40
0.3170731707317073
 40
0.3170731707317073
 40
0.3292682926829268
 40
0.3292682926829268
 40
0.3292682926829268
 40
0.3292682926829268
 40
0.3414634146341464
 40
0.3414634146341464
 40
0.3414634146341464
 40
0.3414634146341464
 40
0.3536585365853658
 40
0.3536585365853658
 40
0.3536585365853658
 40
0.3536585365853658
 40
0.3658536585365854
 40
0.3658536585365854
 40
0.3658536585365854
 40
0.3658536585365854
 40
0.3780487804878049
 40
0.3780487804878049
 40
0.3780487804878049
 40
0.3780487804878049
 40
0.3902439024390244
 40
0.3902439024390244
 40
0.3902439024390244
 40
0.3902439024390244
 40
0.4024390243902439
 40
0.4024390243902439
 40
0.4024390243902439
 40
0.4024390243902439
 40
0.4146341463414634
 40
0.4146341463414634
 40
0.4146341463414634
 40
0.4146341463414634
 40
0.4268292682926829
 40
0.4268292682926829
 40
0.4268292682926829
 40
0.4268292682926829
 40
0.4390243902439024
 40
0.4390243902439024
 40
0.4390243902439024
 40
0.4390243902439024
 40
0.451219512195122
 40
0.451219512195122
 40
0.451219512195122
 40
0.451219512195122
 40
0.4634146341463415
 40
0.4634146341463415
 40
0.4634146341463415
 40
0.4634146341463415
 40
0.475609756097561
 40
0.475609756097561
 40
0.475609756097561
 40
0.475609756097561
 40
0.4878048780487805
 40
0.4878048780487805
 40
0.4878048780487805
 40
0.4878048780487805
 40
0.5
 40
0.5
 40
0.5
 40
0.5
 40
0.5121951219512195
 40
0.5121951219512195
 40
0.5121951219512195
 40
0.5121951219512195
 40
0.524390243902439
 40
0.524390243902439
 40
0.524390243902439
 40
0.524390243902439
 40
0.5365853658536586
 40
0.5365853658536586
 40
0.5365853658536586
 40
0.5365853658536586
 40
0.5487804878048781
 40
0.5487804878048781
 40
0.5487804878048781
 40
0.5487804878048781
 40
0.5609756097560976
 40
0.5609756097560976
 40
0.5609756097560976
 40
0.5609756097560976
 40
0.573170731707317
 40
0.573170731707317
 40
0.573170731707317
 40
0.573170731707317
 40
0.5853658536585366
 40
0.5853658536585366
 40
0.5853658536585366
 40
0.5853658536585366
 40
0.5975609756097561
 40
0.5975609756097561
 40
0.5975609756097561
 40
0.5975609756097561
 40
0.6097560975609756
 40
0.6097560975609756
 40
0.6097560975609756
 40
0.6097560975609756
 40
0.6219512195121951
 40
0.6219512195121951
 40
0.6219512195121951
 40
0.6219512195121951
 40
0.6341463414634146
 40
0.6341463414634146
 40
0.6341463414634146
 40
0.6341463414634146
 40
0.6463414634146342
 40
0.6463414634146342
 40
0.6463414634146342
 40
0.6463414634146342
 40
0.6585365853658537
 40
0.6585365853658537
 40
0.6585365853658537
 40
0.6585365853658537
 40
0.6707317073170732
 40
0.6707317073170732
 40
0.6707317073170732
 40
0.6707317073170732
 40
0.6829268292682927
 40
0.6829268292682927
 40
0.6829268292682927
 40
0.6829268292682927
 40
0.6951219512195121
 40
0.6951219512195121
 40
0.6951219512195121
 40
0.6951219512195121
 40
0.7073170731707317
 40
0.7073170731707317
 40
0.7073170731707317
 40
0.7073170731707317
 40
0.7195121951219512
 40
0.7195121951219512
 40
0.7195121951219512
 40
0.7195121951219512
 40
0.7317073170731707
 40
0.7317073170731707
 40
0.7317073170731707
 40
0.7317073170731707
 40
0.7439024390243902
 40
0.7439024390243902
 40
0.7439024390243902
 40
0.7439024390243902
 40
0.7560975609756098
 40
0.7560975609756098
 40
0.7560975609756098
 40
0.7560975609756098
 40
0.7682926829268293
 40
0.7682926829268293
 40
0.7682926829268293
 40
0.7682926829268293
 40
0.7804878048780488
 40
0.7804878048780488
 40
0.7804878048780488
 40
0.7804878048780488
 40
0.7926829268292683
 40
0.7926829268292683
 40
0.7926829268292683
 40
0.7926829268292683
 40
0.8048780487804879
 40
0.8048780487804879
 40
0.8048780487804879
 40
0.8048780487804879
 40
0.8170731707317073
 40
0.8170731707317073
 40
0.8170731707317073
 40
0.8170731707317073
 40
0.8292682926829268
 40
0.8292682926829268
 40
0.8292682926829268
 40
0.8292682926829268
 40
0.8414634146341463
 40
0.8414634146341463
 40
0.8414634146341463
 40
0.8414634146341463
 40
0.8536585365853658
 40
0.8536585365853658
 40
0.8536585365853658
 40
0.8536585365853658
 40
0.8658536585365854
 40
0.8658536585365854
 40
0.8658536585365854
 40
0.8658536585365854
 40
0.8780487804878049
 40
0.8780487804878049
 40
0.8780487804878049
 40
0.8780487804878049
 40
0.8902439024390244
 40
0.8902439024390244
 40
0.8902439024390244
 40
0.8902439024390244
 40
0.9024390243902439
 40
0.9024390243902439
 40
0.9024390243902439
 40
0.9024390243902439
 40
0.9146341463414634
 40
0.9146341463414634
 40
0.9146341463414634
 40
0.9146341463414634
 40
0.926829268292683
 40
0.926829268292683
 40
0.926829268292683
 40
0.926829268292683
 40
0.9390243902439024
 40
0.9390243902439024
 40
0.9390243902439024
 40
0.9390243902439024
 40
0.9512195121951219
 40
0.9512195121951219
 40
0.9512195121951219
 40
0.9512195121951219
 40
0.9634146341463414
 40
0.9634146341463414
 40
0.9634146341463414
 40
0.9634146341463414
 40
0.975609756097561
 40
0.975609756097561
 40
0.975609756097561
 40
0.975609756097561
 40
1.0
 40
1.0
 40
1.0
 40
1.0
 10
-267.8162
 20
110.5295
 30
0.0
 10
-267.8162
 20
110.5295
 30
0.0
 10
-267.8162
 20
24.5293
 30
0.0
 10
-267.8162
 20
24.5293
 30
0.0
 10
-267.8162
 20
24.5293
 30
0.0
 10
-267.8162
 20
21.2157
 30
0.0
 10
-265.1298
 20
18.5296
 30
0.0
 10
-261.8162
 20
18.5296
 30
0.0
 10
-261.8162
 20
18.5296
 30
0.0
 10
-261.8162
 20
18.5296
 30
0.0
 10
-261.8162
 20
33.5294
 30
0.0
 10
-261.8162
 20
33.5294
 30
0.0
 10
-261.8162
 20
33.5294
 30
0.0
 10
-261.8162
 20
33.5294
 30
0.0
 10
-255.8161
 20
33.5294
 30
0.0
 10
-255.8161
 20
33.5294
 30
0.0
 10
-255.8161
 20
33.5294
 30
0.0
 10
-255.8161
 20
33.5294
 30
0.0
 10
-255.8161
 20
18.5296
 30
0.0
 10
-255.8161
 20
18.5296
 30
0.0
 10
-255.8161
 20
18.5296
 30
0.0
 10
-255.8161
 20
18.5296
 30
0.0
 10
-244.565
 20
18.5296
 30
0.0
 10
-244.565
 20
18.5296
 30
0.0
 10
-244.565
 20
18.5296
 30
0.0
 10
-230.9336
 20
18.5296
 30
0.0
 10
-217.5821
 20
22.3993
 30
0.0
 10
-206.0632
 20
29.6887
 30
0.0
 10
-206.0632
 20
29.6887
 30
0.0
 10
-206.0632
 20
29.6887
 30
0.0
 10
-205.5044
 20
30.0334
 30
0.0
 10
-205.5044
 20
30.0334
 30
0.0
 10
-205.5044
 20
30.0334
 30
0.0
 10
-205.5044
 20
30.0334
 30
0.0
 10
-204.9216
 20
30.3752
 30
0.0
 10
-204.9216
 20
30.3752
 30
0.0
 10
-204.9216
 20
30.3752
 30
0.0
 10
-204.9216
 20
30.3752
 30
0.0
 10
-204.3151
 20
30.7135
 30
0.0
 10
-204.3151
 20
30.7135
 30
0.0
 10
-204.3151
 20
30.7135
 30
0.0
 10
-204.3151
 20
30.7135
 30
0.0
 10
-203.6844
 20
31.048
 30
0.0
 10
-203.6844
 20
31.048
 30
0.0
 10
-203.6844
 20
31.048
 30
0.0
 10
-203.6844
 20
31.048
 30
0.0
 10
-203.03
 20
31.3775
 30
0.0
 10
-203.03
 20
31.3775
 30
0.0
 10
-203.03
 20
31.3775
 30
0.0
 10
-203.03
 20
31.3775
 30
0.0
 10
-202.3516
 20
31.7017
 30
0.0
 10
-202.3516
 20
31.7017
 30
0.0
 10
-202.3516
 20
31.7017
 30
0.0
 10
-202.3516
 20
31.7017
 30
0.0
 10
-201.6489
 20
32.0202
 30
0.0
 10
-201.6489
 20
32.0202
 30
0.0
 10
-201.6489
 20
32.0202
 30
0.0
 10
-201.6489
 20
32.0202
 30
0.0
 10
-200.9225
 20
32.3324
 30
0.0
 10
-200.9225
 20
32.3324
 30
0.0
 10
-200.9225
 20
32.3324
 30
0.0
 10
-200.9225
 20
32.3324
 30
0.0
 10
-200.1725
 20
32.6379
 30
0.0
 10
-200.1725
 20
32.6379
 30
0.0
 10
-200.1725
 20
32.6379
 30
0.0
 10
-200.1725
 20
32.6379
 30
0.0
 10
-199.3988
 20
32.936
 30
0.0
 10
-199.3988
 20
32.936
 30
0.0
 10
-199.3988
 20
32.936
 30
0.0
 10
-199.3988
 20
32.936
 30
0.0
 10
-198.6023
 20
33.226
 30
0.0
 10
-198.6023
 20
33.226
 30
0.0
 10
-198.6023
 20
33.226
 30
0.0
 10
-198.6023
 20
33.226
 30
0.0
 10
-197.7828
 20
33.5072
 30
0.0
 10
-197.7828
 20
33.5072
 30
0.0
 10
-197.7828
 20
33.5072
 30
0.0
 10
-197.7828
 20
33.5072
 30
0.0
 10
-196.941
 20
33.7795
 30
0.0
 10
-196.941
 20
33.7795
 30
0.0
 10
-196.941
 20
33.7795
 30
0.0
 10
-196.941
 20
33.7795
 30
0.0
 10
-196.0774
 20
34.042
 30
0.0
 10
-196.0774
 20
34.042
 30
0.0
 10
-196.0774
 20
34.042
 30
0.0
 10
-196.0774
 20
34.042
 30
0.0
 10
-195.1927
 20
34.2939
 30
0.0
 10
-195.1927
 20
34.2939
 30
0.0
 10
-195.1927
 20
34.2939
 30
0.0
 10
-195.1927
 20
34.2939
 30
0.0
 10
-194.2871
 20
34.5352
 30
0.0
 10
-194.2871
 20
34.5352
 30
0.0
 10
-194.2871
 20
34.5352
 30
0.0
 10
-194.2871
 20
34.5352
 30
0.0
 10
-193.3621
 20
34.7648
 30
0.0
 10
-193.3621
 20
34.7648
 30
0.0
 10
-193.3621
 20
34.7648
 30
0.0
 10
-193.3621
 20
34.7648
 30
0.0
 10
-192.4181
 20
34.9825
 30
0.0
 10
-192.4181
 20
34.9825
 30
0.0
 10
-192.4181
 20
34.9825
 30
0.0
 10
-192.4181
 20
34.9825
 30
0.0
 10
-191.4557
 20
35.1875
 30
0.0
 10
-191.4557
 20
35.1875
 30
0.0
 10
-191.4557
 20
35.1875
 30
0.0
 10
-191.4557
 20
35.1875
 30
0.0
 10
-190.4764
 20
35.3797
 30
0.0
 10
-190.4764
 20
35.3797
 30
0.0
 10
-190.4764
 20
35.3797
 30
0.0
 10
-190.4764
 20
35.3797
 30
0.0
 10
-189.4808
 20
35.5586
 30
0.0
 10
-189.4808
 20
35.5586
 30
0.0
 10
-189.4808
 20
35.5586
 30
0.0
 10
-189.4808
 20
35.5586
 30
0.0
 10
-188.4701
 20
35.7233
 30
0.0
 10
-188.4701
 20
35.7233
 30
0.0
 10
-188.4701
 20
35.7233
 30
0.0
 10
-188.4701
 20
35.7233
 30
0.0
 10
-187.4457
 20
35.8736
 30
0.0
 10
-187.4457
 20
35.8736
 30
0.0
 10
-187.4457
 20
35.8736
 30
0.0
 10
-187.4457
 20
35.8736
 30
0.0
 10
-186.4089
 20
36.0094
 30
0.0
 10
-186.4089
 20
36.0094
 30
0.0
 10
-186.4089
 20
36.0094
 30
0.0
 10
-186.4089
 20
36.0094
 30
0.0
 10
-185.36
 20
36.1297
 30
0.0
 10
-185.36
 20
36.1297
 30
0.0
 10
-185.36
 20
36.1297
 30
0.0
 10
-185.36
 20
36.1297
 30
0.0
 10
-184.3017
 20
36.2348
 30
0.0
 10
-184.3017
 20
36.2348
 30
0.0
 10
-184.3017
 20
36.2348
 30
0.0
 10
-184.3017
 20
36.2348
 30
0.0
 10
-183.2342
 20
36.3245
 30
0.0
 10
-183.2342
 20
36.3245
 30
0.0
 10
-183.2342
 20
36.3245
 30
0.0
 10
-183.2342
 20
36.3245
 30
0.0
 10
-182.1596
 20
36.3978
 30
0.0
 10
-182.1596
 20
36.3978
 30
0.0
 10
-182.1596
 20
36.3978
 30
0.0
 10
-182.1596
 20
36.3978
 30
0.0
 10
-181.0791
 20
36.4553
 30
0.0
 10
-181.0791
 20
36.4553
 30
0.0
 10
-181.0791
 20
36.4553
 30
0.0
 10
-181.0791
 20
36.4553
 30
0.0
 10
-179.9939
 20
36.4966
 30
0.0
 10
-179.9939
 20
36.4966
 30
0.0
 10
-179.9939
 20
36.4966
 30
0.0
 10
-179.9939
 20
36.4966
 30
0.0
 10
-178.9056
 20
36.5213
 30
0.0
 10
-178.9056
 20
36.5213
 30
0.0
 10
-178.9056
 20
36.5213
 30
0.0
 10
-178.9056
 20
36.5213
 30
0.0
 10
-177.8162
 20
36.5294
 30
0.0
 10
-177.8162
 20
36.5294
 30
0.0
 10
-177.8162
 20
36.5294
 30
0.0
 10
-177.8162
 20
36.5294
 30
0.0
 10
-176.7265
 20
36.5213
 30
0.0
 10
-176.7265
 20
36.5213
 30
0.0
 10
-176.7265
 20
36.5213
 30
0.0
 10
-176.7265
 20
36.5213
 30
0.0
 10
-175.6385
 20
36.4966
 30
0.0
 10
-175.6385
 20
36.4966
 30
0.0
 10
-175.6385
 20
36.4966
 30
0.0
 10
-175.6385
 20
36.4966
 30
0.0
 10
-174.5534
 20
36.4553
 30
0.0
 10
-174.5534
 20
36.4553
 30
0.0
 10
-174.5534
 20
36.4553
 30
0.0
 10
-174.5534
 20
36.4553
 30
0.0
 10
-173.4728
 20
36.3978
 30
0.0
 10
-173.4728
 20
36.3978
 30
0.0
 10
-173.4728
 20
36.3978
 30
0.0
 10
-173.4728
 20
36.3978
 30
0.0
 10
-172.3983
 20
36.3245
 30
0.0
 10
-172.3983
 20
36.3245
 30
0.0
 10
-172.3983
 20
36.3245
 30
0.0
 10
-172.3983
 20
36.3245
 30
0.0
 10
-171.3308
 20
36.2348
 30
0.0
 10
-171.3308
 20
36.2348
 30
0.0
 10
-171.3308
 20
36.2348
 30
0.0
 10
-171.3308
 20
36.2348
 30
0.0
 10
-170.2721
 20
36.1297
 30
0.0
 10
-170.2721
 20
36.1297
 30
0.0
 10
-170.2721
 20
36.1297
 30
0.0
 10
-170.2721
 20
36.1297
 30
0.0
 10
-169.2236
 20
36.0094
 30
0.0
 10
-169.2236
 20
36.0094
 30
0.0
 10
-169.2236
 20
36.0094
 30
0.0
 10
-169.2236
 20
36.0094
 30
0.0
 10
-168.1865
 20
35.8736
 30
0.0
 10
-168.1865
 20
35.8736
 30
0.0
 10
-168.1865
 20
35.8736
 30
0.0
 10
-168.1865
 20
35.8736
 30
0.0
 10
-167.162
 20
35.7233
 30
0.0
 10
-167.162
 20
35.7233
 30
0.0
 10
-167.162
 20
35.7233
 30
0.0
 10
-167.162
 20
35.7233
 30
0.0
 10
-166.1516
 20
35.5586
 30
0.0
 10
-166.1516
 20
35.5586
 30
0.0
 10
-166.1516
 20
35.5586
 30
0.0
 10
-166.1516
 20
35.5586
 30
0.0
 10
-165.1561
 20
35.3797
 30
0.0
 10
-165.1561
 20
35.3797
 30
0.0
 10
-165.1561
 20
35.3797
 30
0.0
 10
-165.1561
 20
35.3797
 30
0.0
 10
-164.1768
 20
35.1875
 30
0.0
 10
-164.1768
 20
35.1875
 30
0.0
 10
-164.1768
 20
35.1875
 30
0.0
 10
-164.1768
 20
35.1875
 30
0.0
 10
-163.2144
 20
34.9825
 30
0.0
 10
-163.2144
 20
34.9825
 30
0.0
 10
-163.2144
 20
34.9825
 30
0.0
 10
-163.2144
 20
34.9825
 30
0.0
 10
-162.2704
 20
34.7648
 30
0.0
 10
-162.2704
 20
34.7648
 30
0.0
 10
-162.2704
 20
34.7648
 30
0.0
 10
-162.2704
 20
34.7648
 30
0.0
 10
-161.3454
 20
34.5352
 30
0.0
 10
-161.3454
 20
34.5352
 30
0.0
 10
-161.3454
 20
34.5352
 30
0.0
 10
-161.3454
 20
34.5352
 30
0.0
 10
-160.4398
 20
34.2939
 30
0.0
 10
-160.4398
 20
34.2939
 30
0.0
 10
-160.4398
 20
34.2939
 30
0.0
 10
-160.4398
 20
34.2939
 30
0.0
 10
-159.5551
 20
34.042
 30
0.0
 10
-159.5551
 20
34.042
 30
0.0
 10
-159.5551
 20
34.042
 30
0.0
 10
-159.5551
 20
34.042
 30
0.0
 10
-158.6915
 20
33.7795
 30
0.0
 10
-158.6915
 20
33.7795
 30
0.0
 10
-158.6915
 20
33.7795
 30
0.0
 10
-158.6915
 20
33.7795
 30
0.0
 10
-157.8497
 20
33.5072
 30
0.0
 10
-157.8497
 20
33.5072
 30
0.0
 10
-157.8497
 20
33.5072
 30
0.0
 10
-157.8497
 20
33.5072
 30
0.0
 10
-157.0302
 20
33.226
 30
0.0
 10
-157.0302
 20
33.226
 30
0.0
 10
-157.0302
 20
33.226
 30
0.0
 10
-157.0302
 20
33.226
 30
0.0
 10
-156.2337
 20
32.936
 30
0.0
 10
-156.2337
 20
32.936
 30
0.0
 10
-156.2337
 20
32.936
 30
0.0
 10
-156.2337
 20
32.936
 30
0.0
 10
-155.46
 20
32.6379
 30
0.0
 10
-155.46
 20
32.6379
 30
0.0
 10
-155.46
 20
32.6379
 30
0.0
 10
-155.46
 20
32.6379
 30
0.0
 10
-154.71
 20
32.3324
 30
0.0
 10
-154.71
 20
32.3324
 30
0.0
 10
-154.71
 20
32.3324
 30
0.0
 10
-154.71
 20
32.3324
 30
0.0
 10
-153.9836
 20
32.0202
 30
0.0
 10
-153.9836
 20
32.0202
 30
0.0
 10
-153.9836
 20
32.0202
 30
0.0
 10
-153.9836
 20
32.0202
 30
0.0
 10
-153.2809
 20
31.7017
 30
0.0
 10
-153.2809
 20
31.7017
 30
0.0
 10
-153.2809
 20
31.7017
 30
0.0
 10
-153.2809
 20
31.7017
 30
0.0
 10
-152.6025
 20
31.3775
 30
0.0
 10
-152.6025
 20
31.3775
 30
0.0
 10
-152.6025
 20
31.3775
 30
0.0
 10
-152.6025
 20
31.3775
 30
0.0
 10
-151.9478
 20
31.048
 30
0.0
 10
-151.9478
 20
31.048
 30
0.0
 10
-151.9478
 20
31.048
 30
0.0
 10
-151.9478
 20
31.048
 30
0.0
 10
-151.3173
 20
30.7135
 30
0.0
 10
-151.3173
 20
30.7135
 30
0.0
 10
-151.3173
 20
30.7135
 30
0.0
 10
-151.3173
 20
30.7135
 30
0.0
 10
-150.7109
 20
30.3752
 30
0.0
 10
-150.7109
 20
30.3752
 30
0.0
 10
-150.7109
 20
30.3752
 30
0.0
 10
-150.7109
 20
30.3752
 30
0.0
 10
-150.1281
 20
30.0334
 30
0.0
 10
-150.1281
 20
30.0334
 30
0.0
 10
-150.1281
 20
30.0334
 30
0.0
 10
-150.1281
 20
30.0334
 30
0.0
 10
-149.569
 20
29.6887
 30
0.0
 10
-149.569
 20
29.6887
 30
0.0
 10
-149.569
 20
29.6887
 30
0.0
 10
-138.0504
 20
22.3993
 30
0.0
 10
-124.6988
 20
18.5296
 30
0.0
 10
-111.0675
 20
18.5296
 30
0.0
 10
-111.0675
 20
18.5296
 30
0.0
 10
-111.0675
 20
18.5296
 30
0.0
 10
-99.8164
 20
18.5296
 30
0.0
 10
-99.8164
 20
18.5296
 30
0.0
 10
-99.8164
 20
18.5296
 30
0.0
 10
-99.8164
 20
18.5296
 30
0.0
 10
-99.8164
 20
33.5294
 30
0.0
 10
-99.8164
 20
33.5294
 30
0.0
 10
-99.8164
 20
33.5294
 30
0.0
 10
-99.8164
 20
33.5294
 30
0.0
 10
-93.8163
 20
33.5294
 30
0.0
 10
-93.8163
 20
33.5294
 30
0.0
 10
-93.8163
 20
33.5294
 30
0.0
 10
-93.8163
 20
33.5294
 30
0.0
 10
-93.8163
 20
18.5296
 30
0.0
 10
-93.8163
 20
18.5296
 30
0.0
 10
-93.8163
 20
18.5296
 30
0.0
 10
-90.5023
 20
18.5296
 30
0.0
 10
-87.8163
 20
21.2157
 30
0.0
 10
-87.8163
 20
24.5293
 30
0.0
 10
-87.8163
 20
24.5293
 30
0.0
 10
-87.8163
 20
24.5293
 30
0.0
 10
-87.8163
 20
110.5295
 30
0.0
 10
-87.8163
 20
110.5295
 30
0.0
 10
-87.8163
 20
110.5295
 30
0.0
 10
-87.8163
 20
120.4708
 30
0.0
 10
-95.8751
 20
128.5296
 30
0.0
 10
-105.8161
 20
128.5296
 30
0.0
 10
-105.8161
 20
128.5296
 30
0.0
 10
-105.8161
 20
128.5296
 30
0.0
 10
-249.8161
 20
128.5296
 30
0.0
 10
-249.8161
 20
128.5296
 30
0.0
 10
-249.8161
 20
128.5296
 30
0.0
 10
-259.7573
 20
128.5296
 30
0.0
 10
-267.8162
 20
120.4708
 30
0.0
 10
-267.8162
 20
110.5295
 30
0.0
  0
SPLINE
  5
72
330
1F
100
AcDbEntity
  8
layer 1
 62
     7
100
AcDbSpline
210
0.0
220
0.0
230
1.0
 70
    11
 71
     3
 72
    60
 73
    56
 74
     0
 42
0.000000001
 43
0.0000000001
 40
0.0
 40
0.0
 40
0.0
 40
0.0
 40
0.0666666666666667
 40
0.0666666666666667
 40
0.0666666666666667
 40
0.0666666666666667
 40
0.1333333333333333
 40
0.1333333333333333
 40
0.1333333333333333
 40
0.1333333333333333
 40
0.2
 40
0.2
 40
0.2
 40
0.2
 40
0.2666666666666667
 40
0.2666666666666667
 40
0.2666666666666667
 40
0.2666666666666667
 40
0.3333333333333333
 40
0.3333333333333333
 40
0.3333333333333333
 40
0.3333333333333333
 40
0.4
 40
0.4
 40
0.4
 40
0.4
 40
0.4666666666666667
 40
0.4666666666666667
 40
0.4666666666666667
 40
0.4666666666666667
 40
0.5333333333333333
 40
0.5333333333333333
 40
0.5333333333333333
 40
0.5333333333333333
 40
0.6
 40
0.6
 40
0.6
 40
0.6
 40
0.6666666666666666
 40
0.6666666666666666
 40
0.6666666666666666
 40
0.6666666666666666
 40
0.7333333333333333
 40
0.7333333333333333
 40
0.7333333333333333
 40
0.7333333333333333
 40
0.8
 40
0.8
 40
0.8
 40
0.8
 40
0.8666666666666667
 40
0.8666666666666667
 40
0.8666666666666667
 40
0.8666666666666667
 40
1.0
 40
1.0
 40
1.0
 40
1.0
 10
90.8069
 20
-158.3631
 30
0.0
 10
90.8069
 20
-158.3631
 30
0.0
 10
78.8068
 20
-158.3631
 30
0.0
 10
78.8068
 20
-158.3631
 30
0.0
 10
78.8068
 20
-158.3631
 30
0.0
 10
78.8068
 20
-158.3631
 30
0.0
 10
78.8068
 20
-164.3632
 30
0.0
 10
78.8068
 20
-164.3632
 30
0.0
 10
78.8068
 20
-164.3632
 30
0.0
 10
78.8068
 20
-164.3632
 30
0.0
 10
90.8069
 20
-164.3632
 30
0.0
 10
90.8069
 20
-164.3632
 30
0.0
 10
90.8069
 20
-164.3632
 30
0.0
 10
90.8069
 20
-167.6768
 30
0.0
 10
88.1205
 20
-170.3632
 30
0.0
 10
84.8069
 20
-170.3632
 30
0.0
 10
84.8069
 20
-170.3632
 30
0.0
 10
84.8069
 20
-170.3632
 30
0.0
 10
72.8068
 20
-170.3632
 30
0.0
 10
72.8068
 20
-170.3632
 30
0.0
 10
72.8068
 20
-170.3632
 30
0.0
 10
69.4932
 20
-170.3632
 30
0.0
 10
66.8071
 20
-167.6768
 30
0.0
 10
66.8071
 20
-164.3632
 30
0.0
 10
66.8071
 20
-164.3632
 30
0.0
 10
66.8071
 20
-164.3632
 30
0.0
 10
66.8071
 20
3.6369
 30
0.0
 10
66.8071
 20
3.6369
 30
0.0
 10
66.8071
 20
3.6369
 30
0.0
 10
66.8071
 20
6.9506
 30
0.0
 10
69.4932
 20
9.6366
 30
0.0
 10
72.8068
 20
9.6366
 30
0.0
 10
72.8068
 20
9.6366
 30
0.0
 10
72.8068
 20
9.6366
 30
0.0
 10
84.8069
 20
9.6366
 30
0.0
 10
84.8069
 20
9.6366
 30
0.0
 10
84.8069
 20
9.6366
 30
0.0
 10
88.1205
 20
9.6366
 30
0.0
 10
90.8069
 20
6.9506
 30
0.0
 10
90.8069
 20
3.6369
 30
0.0
 10
90.8069
 20
3.6369
 30
0.0
 10
90.8069
 20
3.6369
 30
0.0
 10
78.8068
 20
3.6369
 30
0.0
 10
78.8068
 20
3.6369
 30
0.0
 10
78.8068
 20
3.6369
 30
0.0
 10
78.8068
 20
3.6369
 30
0.0
 10
78.8068
 20
-2.3631
 30
0.0
 10
78.8068
 20
-2.3631
 30
0.0
 10
78.8068
 20
-2.3631
 30
0.0
 10
78.8068
 20
-2.3631
 30
0.0
 10
90.8069
 20
-2.3631
 30
0.0
 10
90.8069
 20
-2.3631
 30
0.0
 10
90.8069
 20
-2.3631
 30
0.0
 10
90.8069
 20
-2.3631
 30
0.0
 10
90.8069
 20
-158.3631
 30
0.0
 10
90.8069
 20
-158.3631
 30
0.0
  0
SPLINE
  5
73
330
1F
100
AcDbEntity
  8
layer 1
370
    35
100
AcDbSpline
210
0.0
220
0.0
230
1.0
 70
    11
 71
     3
 72
    60
 73
    56
 74
     0
 42
0.000000001
 43
0.0000000001
 40
0.0
 40
0.0
 40
0.0
 40
0.0
 40
0.0666666666666667
 40
0.0666666666666667
 40
0.0666666666666667
 40
0.0666666666666667
 40
0.1333333333333333
 40
0.1333333333333333
 40
0.1333333333333333
 40
0.1333333333333333
 40
0.2
 40
0.2
 40
0.2
 40
0.2
 40
0.2666666666666667
 40
0.2666666666666667
 40
0.2666666666666667
 40
0.2666666666666667
 40
0.3333333333333333
 40
0.3333333333333333
 40
0.3333333333333333
 40
0.3333333333333333
 40
0.4
 40
0.4
 40
0.4
 40
0.4
 40
0.4666666666666667
 40
0.4666666666666667
 40
0.4666666666666667
 40
0.4666666666666667
 40
0.5333333333333333
 40
0.5333333333333333
 40
0.5333333333333333
 40
0.5333333333333333
 40
0.6
 40
0.6
 40
0.6
 40
0.6
 40
0.6666666666666666
 40
0.6666666666666666
 40
0.6666666666666666
 40
0.6666666666666666
 40
0.7333333333333333
 40
0.7333333333333333
 40
0.7333333333333333
 40
0.7333333333333333
 40
0.8
 40
0.8
 40
0.8
 40
0.8
 40
0.8666666666666667
 40
0.8666666666666667
 40
0.8666666666666667
 40
0.8666666666666667
 40
1.0
 40
1.0
 40
1.0
 40
1.0
 10
90.8069
 20
-158.3631
 30
0.0
 10
90.8069
 20
-158.3631
 30
0.0
 10
78.8068
 20
-158.3631
 30
0.0
 10
78.8068
 20
-158.3631
 30
0.0
 10
78.8068
 20
-158.3631
 30
0.0
 10
78.8068
 20
-158.3631
 30
0.0
 10
78.8068
 20
-164.3632
 30
0.0
 10
78.8068
 20
-164.3632
 30
0.0
 10
78.8068
 20
-164.3632
 30
0.0
 10
78.8068
 20
-164.3632
 30
0.0
 10
90.8069
 20
-164.3632
 30
0.0
 10
90.8069
 20
-164.3632
 30
0.0
 10
90.8069
 20
-164.3632
 30
0.0
 10
90.8069
 20
-167.6768
 30
0.0
 10
88.1205
 20
-170.3632
 30
0.0
 10
84.8069
 20
-170.3632
 30
0.0
 10
84.8069
 20
-170.3632
 30
0.0
 10
84.8069
 20
-170.3632
 30
0.0
 10
72.8068
 20
-170.3632
 30
0.0
 10
72.8068
 20
-170.3632
 30
0.0
 10
72.8068
 20
-170.3632
 30
0.0
 10
69.4932
 20
-170.3632
 30
0.0
 10
66.8071
 20
-167.6768
 30
0.0
 10
66.8071
 20
-164.3632
 30
0.0
 10
66.8071
 20
-164.3632
 30
0.0
 10
66.8071
 20
-164.3632
 30
0.0
 10
66.8071
 20
3.6369
 30
0.0
 10
66.8071
 20
3.6369
 30
0.0
 10
66.8071
 20
3.6369
 30
0.0
 10
66.8071
 20
6.9506
 30
0.0
 10
69.4932
 20
9.6366
 30
0.0
 10
72.8068
 20
9.6366
 30
0.0
 10
72.8068
 20
9.6366
 30
0.0
 10
72.8068
 20
9.6366
 30
0.0
 10
84.8069
 20
9.6366
 30
0.0
 10
84.8069
 20
9.6366
 30
0.0
 10
84.8069
 20
9.6366
 30
0.0
 10
88.1205
 20
9.6366
 30
0.0
 10
90.8069
 20
6.9506
 30
0.0
 10
90.8069
 20
3.6369
 30
0.0
 10
90.8069
 20
3.6369
 30
0.0
 10
90.8069
 20
3.6369
 30
0.0
 10
78.8068
 20
3.6369
 30
0.0
 10
78.8068
 20
3.6369
 30
0.0
 10
78.8068
 20
3.6369
 30
0.0
 10
78.8068
 20
3.6369
 30
0.0
 10
78.8068
 20
-2.3631
 30
0.0
 10
78.8068
 20
-2.3631
 30
0.0
 10
78.8068
 20
-2.3631
 30
0.0
 10
78.8068
 20
-2.3631
 30
0.0
 10
90.8069
 20
-2.3631
 30
0.0
 10
90.8069
 20
-2.3631
 30
0.0
 10
90.8069
 20
-2.3631
 30
0.0
 10
90.8069
 20
-2.3631
 30
0.0
 10
90.8069
 20
-158.3631
 30
0.0
 10
90.8069
 20
-158.3631
 30
0.0
  0
SPLINE
  5
74
330
1F
100
AcDbEntity
  8
layer 1
 62
     7
100
AcDbSpline
210
0.0
220
0.0
230
1.0
 70
    11
 71
     3
 72
    28
 73
    24
 74
     0
 42
0.000000001
 43
0.0000000001
 40
0.0
 40
0.0
 40
0.0
 40
0.0
 40
0.1428571428571428
 40
0.1428571428571428
 40
0.1428571428571428
 40
0.1428571428571428
 40
0.2857142857142857
 40
0.2857142857142857
 40
0.2857142857142857
 40
0.2857142857142857
 40
0.4285714285714285
 40
0.4285714285714285
 40
0.4285714285714285
 40
0.4285714285714285
 40
0.5714285714285714
 40
0.5714285714285714
 40
0.5714285714285714
 40
0.5714285714285714
 40
0.7142857142857143
 40
0.7142857142857143
 40
0.7142857142857143
 40
0.7142857142857143
 40
1.0
 40
1.0
 40
1.0
 40
1.0
 10
-3.7643
 20
-104.7798
 30
0.0
 10
-3.7643
 20
-108.9218
 30
0.0
 10
-7.1221
 20
-112.2799
 30
0.0
 10
-11.2644
 20
-112.2799
 30
0.0
 10
-11.2644
 20
-112.2799
 30
0.0
 10
-15.4063
 20
-112.2799
 30
0.0
 10
-18.7644
 20
-108.9218
 30
0.0
 10
-18.7644
 20
-104.7798
 30
0.0
 10
-18.7644
 20
-104.7798
 30
0.0
 10
-18.7644
 20
-104.7798
 30
0.0
 10
-18.7644
 20
-56.7798
 30
0.0
 10
-18.7644
 20
-56.7798
 30
0.0
 10
-18.7644
 20
-56.7798
 30
0.0
 10
-18.7644
 20
-52.6375
 30
0.0
 10
-15.4063
 20
-49.2798
 30
0.0
 10
-11.2644
 20
-49.2798
 30
0.0
 10
-11.2644
 20
-49.2798
 30
0.0
 10
-7.1221
 20
-49.2798
 30
0.0
 10
-3.7643
 20
-52.6375
 30
0.0
 10
-3.7643
 20
-56.7798
 30
0.0
 10
-3.7643
 20
-56.7798
 30
0.0
 10
-3.7643
 20
-56.7798
 30
0.0
 10
-3.7643
 20
-104.7798
 30
0.0
 10
-3.7643
 20
-104.7798
 30
0.0
  0
SPLINE
  5
75
330
1F
100
AcDbEntity
  8
layer 1
 62
     7
100
AcDbSpline
210
0.0
220
0.0
230
1.0
 70
    11
 71
     3
 72
   328
 73
   324
 74
     0
 42
0.000000001
 43
0.0000000001
 40
0.0
 40
0.0
 40
0.0
 40
0.0
 40
0.0121951219512195
 40
0.0121951219512195
 40
0.0121951219512195
 40
0.0121951219512195
 40
0.024390243902439
 40
0.024390243902439
 40
0.024390243902439
 40
0.024390243902439
 40
0.0365853658536585
 40
0.0365853658536585
 40
0.0365853658536585
 40
0.0365853658536585
 40
0.0487804878048781
 40
0.0487804878048781
 40
0.0487804878048781
 40
0.0487804878048781
 40
0.0609756097560976
 40
0.0609756097560976
 40
0.0609756097560976
 40
0.0609756097560976
 40
0.0731707317073171
 40
0.0731707317073171
 40
0.0731707317073171
 40
0.0731707317073171
 40
0.0853658536585366
 40
0.0853658536585366
 40
0.0853658536585366
 40
0.0853658536585366
 40
0.0975609756097561
 40
0.0975609756097561
 40
0.0975609756097561
 40
0.0975609756097561
 40
0.1097560975609756
 40
0.1097560975609756
 40
0.1097560975609756
 40
0.1097560975609756
 40
0.1219512195121951
 40
0.1219512195121951
 40
0.1219512195121951
 40
0.1219512195121951
 40
0.1341463414634146
 40
0.1341463414634146
 40
0.1341463414634146
 40
0.1341463414634146
 40
0.1463414634146341
 40
0.1463414634146341
 40
0.1463414634146341
 40
0.1463414634146341
 40
0.1585365853658537
 40
0.1585365853658537
 40
0.1585365853658537
 40
0.1585365853658537
 40
0.1707317073170732
 40
0.1707317073170732
 40
0.1707317073170732
 40
0.1707317073170732
 40
0.1829268292682927
 40
0.1829268292682927
 40
0.1829268292682927
 40
0.1829268292682927
 40
0.1951219512195122
 40
0.1951219512195122
 40
0.1951219512195122
 40
0.1951219512195122
 40
0.2073170731707317
 40
0.2073170731707317
 40
0.2073170731707317
 40
0.2073170731707317
 40
0.2195121951219512
 40
0.2195121951219512
 40
0.2195121951219512
 40
0.2195121951219512
 40
0.2317073170731707
 40
0.2317073170731707
 40
0.2317073170731707
 40
0.2317073170731707
 40
0.2439024390243902
 40
0.2439024390243902
 40
0.2439024390243902
 40
0.2439024390243902
 40
0.2560975609756098
 40
0.2560975609756098
 40
0.2560975609756098
 40
0.2560975609756098
 40
0.2682926829268293
 40
0.2682926829268293
 40
0.2682926829268293
 40
0.2682926829268293
 40
0.2804878048780488
 40
0.2804878048780488
 40
0.2804878048780488
 40
0.2804878048780488
 40
0.2926829268292683
 40
0.2926829268292683
 40
0.2926829268292683
 40
0.2926829268292683
 40
0.3048780487804878
 40
0.3048780487804878
 40
0.3048780487804878
 40
0.3048780487804878
 40
0.3170731707317073
 40
0.3170731707317073
 40
0.3170731707317073
 40
0.3170731707317073
 40
0.3292682926829268
 40
0.3292682926829268
 40
0.3292682926829268
 40
0.3292682926829268
 40
0.3414634146341464
 40
0.3414634146341464
 40
0.3414634146341464
 40
0.3414634146341464
 40
0.3536585365853658
 40
0.3536585365853658
 40
0.3536585365853658
 40
0.3536585365853658
 40
0.3658536585365854
 40
0.3658536585365854
 40
0.3658536585365854
 40
0.3658536585365854
 40
0.3780487804878049
 40
0.3780487804878049
 40
0.3780487804878049
 40
0.3780487804878049
 40
0.3902439024390244
 40
0.3902439024390244
 40
0.3902439024390244
 40
0.3902439024390244
 40
0.4024390243902439
 40
0.4024390243902439
 40
0.4024390243902439
 40
0.4024390243902439
 40
0.4146341463414634
 40
0.4146341463414634
 40
0.4146341463414634
 40
0.4146341463414634
 40
0.4268292682926829
 40
0.4268292682926829
 40
0.4268292682926829
 40
0.4268292682926829
 40
0.4390243902439024
 40
0.4390243902439024
 40
0.4390243902439024
 40
0.4390243902439024
 40
0.451219512195122
 40
0.451219512195122
 40
0.451219512195122
 40
0.451219512195122
 40
0.4634146341463415
 40
0.4634146341463415
 40
0.4634146341463415
 40
0.4634146341463415
 40
0.475609756097561
 40
0.475609756097561
 40
0.475609756097561
 40
0.475609756097561
 40
0.4878048780487805
 40
0.4878048780487805
 40
0.4878048780487805
 40
0.4878048780487805
 40
0.5
 40
0.5
 40
0.5
 40
0.5
 40
0.5121951219512195
 40
0.5121951219512195
 40
0.5121951219512195
 40
0.5121951219512195
 40
0.524390243902439
 40
0.524390243902439
 40
0.524390243902439
 40
0.524390243902439
 40
0.5365853658536586
 40
0.5365853658536586
 40
0.5365853658536586
 40
0.5365853658536586
 40
0.5487804878048781
 40
0.5487804878048781
 40
0.5487804878048781
 40
0.5487804878048781
 40
0.5609756097560976
 40
0.5609756097560976
 40
0.5609756097560976
 40
0.5609756097560976
 40
0.573170731707317
 40
0.573170731707317
 40
0.573170731707317
 40
0.573170731707317
 40
0.5853658536585366
 40
0.5853658536585366
 40
0.5853658536585366
 40
0.5853658536585366
 40
0.5975609756097561
 40
0.5975609756097561
 40
0.5975609756097561
 40
0.5975609756097561
 40
0.6097560975609756
 40
0.6097560975609756
 40
0.6097560975609756
 40
0.6097560975609756
 40
0.6219512195121951
 40
0.6219512195121951
 40
0.6219512195121951
 40
0.6219512195121951
 40
0.6341463414634146
 40
0.6341463414634146
 40
0.6341463414634146
 40
0.6341463414634146
 40
0.6463414634146342
 40
0.6463414634146342
 40
0.6463414634146342
 40
0.6463414634146342
 40
0.6585365853658537
 40
0.6585365853658537
 40
0.6585365853658537
 40
0.6585365853658537
 40
0.6707317073170732
 40
0.6707317073170732
 40
0.6707317073170732
 40
0.6707317073170732
 40
0.6829268292682927
 40
0.6829268292682927
 40
0.6829268292682927
 40
0.6829268292682927
 40
0.6951219512195121
 40
0.6951219512195121
 40
0.6951219512195121
 40
0.6951219512195121
 40
0.7073170731707317
 40
0.7073170731707317
 40
0.7073170731707317
 40
0.7073170731707317
 40
0.7195121951219512
 40
0.7195121951219512
 40
0.7195121951219512
 40
0.7195121951219512
 40
0.7317073170731707
 40
0.7317073170731707
 40
0.7317073170731707
 40
0.7317073170731707
 40
0.7439024390243902
 40
0.7439024390243902
 40
0.7439024390243902
 40
0.7439024390243902
 40
0.7560975609756098
 40
0.7560975609756098
 40
0.7560975609756098
 40
0.7560975609756098
 40
0.7682926829268293
 40
0.7682926829268293
 40
0.7682926829268293
 40
0.7682926829268293
 40
0.7804878048780488
 40
0.7804878048780488
 40
0.7804878048780488
 40
0.7804878048780488
 40
0.7926829268292683
 40
0.7926829268292683
 40
0.7926829268292683
 40
0.7926829268292683
 40
0.8048780487804879
 40
0.8048780487804879
 40
0.8048780487804879
 40
0.8048780487804879
 40
0.8170731707317073
 40
0.8170731707317073
 40
0.8170731707317073
 40
0.8170731707317073
 40
0.8292682926829268
 40
0.8292682926829268
 40
0.8292682926829268
 40
0.8292682926829268
 40
0.8414634146341463
 40
0.8414634146341463
 40
0.8414634146341463
 40
0.8414634146341463
 40
0.8536585365853658
 40
0.8536585365853658
 40
0.8536585365853658
 40
0.8536585365853658
 40
0.8658536585365854
 40
0.8658536585365854
 40
0.8658536585365854
 40
0.8658536585365854
 40
0.8780487804878049
 40
0.8780487804878049
 40
0.8780487804878049
 40
0.8780487804878049
 40
0.8902439024390244
 40
0.8902439024390244
 40
0.8902439024390244
 40
0.8902439024390244
 40
0.9024390243902439
 40
0.9024390243902439
 40
0.9024390243902439
 40
0.9024390243902439
 40
0.9146341463414634
 40
0.9146341463414634
 40
0.9146341463414634
 40
0.9146341463414634
 40
0.926829268292683
 40
0.926829268292683
 40
0.926829268292683
 40
0.926829268292683
 40
0.9390243902439024
 40
0.9390243902439024
 40
0.9390243902439024
 40
0.9390243902439024
 40
0.9512195121951219
 40
0.9512195121951219
 40
0.9512195121951219
 40
0.9512195121951219
 40
0.9634146341463414
 40
0.9634146341463414
 40
0.9634146341463414
 40
0.9634146341463414
 40
0.975609756097561
 40
0.975609756097561
 40
0.975609756097561
 40
0.975609756097561
 40
1.0
 40
1.0
 40
1.0
 40
1.0
 10
-9.7644
 20
9.2202
 30
0.0
 10
-9.7644
 20
9.2202
 30
0.0
 10
-112.7641
 20
9.2202
 30
0.0
 10
-112.7641
 20
9.2202
 30
0.0
 10
-112.7641
 20
9.2202
 30
0.0
 10
-116.0781
 20
9.2202
 30
0.0
 10
-118.7641
 20
6.5338
 30
0.0
 10
-118.7641
 20
3.2202
 30
0.0
 10
-118.7641
 20
3.2202
 30
0.0
 10
-118.7641
 20
3.2202
 30
0.0
 10
-88.7643
 20
3.2202
 30
0.0
 10
-88.7643
 20
3.2202
 30
0.0
 10
-88.7643
 20
3.2202
 30
0.0
 10
-88.7643
 20
3.2202
 30
0.0
 10
-88.7643
 20
-2.7799
 30
0.0
 10
-88.7643
 20
-2.7799
 30
0.0
 10
-88.7643
 20
-2.7799
 30
0.0
 10
-88.7643
 20
-2.7799
 30
0.0
 10
-118.7641
 20
-2.7799
 30
0.0
 10
-118.7641
 20
-2.7799
 30
0.0
 10
-118.7641
 20
-2.7799
 30
0.0
 10
-118.7641
 20
-2.7799
 30
0.0
 10
-118.7641
 20
-14.031
 30
0.0
 10
-118.7641
 20
-14.031
 30
0.0
 10
-118.7641
 20
-14.031
 30
0.0
 10
-118.7641
 20
-27.6627
 30
0.0
 10
-114.8945
 20
-41.0138
 30
0.0
 10
-107.6051
 20
-52.5327
 30
0.0
 10
-107.6051
 20
-52.5327
 30
0.0
 10
-107.6051
 20
-52.5327
 30
0.0
 10
-107.2601
 20
-53.0919
 30
0.0
 10
-107.2601
 20
-53.0919
 30
0.0
 10
-107.2601
 20
-53.0919
 30
0.0
 10
-107.2601
 20
-53.0919
 30
0.0
 10
-106.9182
 20
-53.6743
 30
0.0
 10
-106.9182
 20
-53.6743
 30
0.0
 10
-106.9182
 20
-53.6743
 30
0.0
 10
-106.9182
 20
-53.6743
 30
0.0
 10
-106.5803
 20
-54.2811
 30
0.0
 10
-106.5803
 20
-54.2811
 30
0.0
 10
-106.5803
 20
-54.2811
 30
0.0
 10
-106.5803
 20
-54.2811
 30
0.0
 10
-106.2458
 20
-54.9115
 30
0.0
 10
-106.2458
 20
-54.9115
 30
0.0
 10
-106.2458
 20
-54.9115
 30
0.0
 10
-106.2458
 20
-54.9115
 30
0.0
 10
-105.9163
 20
-55.5659
 30
0.0
 10
-105.9163
 20
-55.5659
 30
0.0
 10
-105.9163
 20
-55.5659
 30
0.0
 10
-105.9163
 20
-55.5659
 30
0.0
 10
-105.5921
 20
-56.2447
 30
0.0
 10
-105.5921
 20
-56.2447
 30
0.0
 10
-105.5921
 20
-56.2447
 30
0.0
 10
-105.5921
 20
-56.2447
 30
0.0
 10
-105.2736
 20
-56.947
 30
0.0
 10
-105.2736
 20
-56.947
 30
0.0
 10
-105.2736
 20
-56.947
 30
0.0
 10
-105.2736
 20
-56.947
 30
0.0
 10
-104.961
 20
-57.6734
 30
0.0
 10
-104.961
 20
-57.6734
 30
0.0
 10
-104.961
 20
-57.6734
 30
0.0
 10
-104.961
 20
-57.6734
 30
0.0
 10
-104.6558
 20
-58.4238
 30
0.0
 10
-104.6558
 20
-58.4238
 30
0.0
 10
-104.6558
 20
-58.4238
 30
0.0
 10
-104.6558
 20
-58.4238
 30
0.0
 10
-104.3578
 20
-59.197
 30
0.0
 10
-104.3578
 20
-59.197
 30
0.0
 10
-104.3578
 20
-59.197
 30
0.0
 10
-104.3578
 20
-59.197
 30
0.0
 10
-104.0678
 20
-59.994
 30
0.0
 10
-104.0678
 20
-59.994
 30
0.0
 10
-104.0678
 20
-59.994
 30
0.0
 10
-104.0678
 20
-59.994
 30
0.0
 10
-103.7863
 20
-60.8135
 30
0.0
 10
-103.7863
 20
-60.8135
 30
0.0
 10
-103.7863
 20
-60.8135
 30
0.0
 10
-103.7863
 20
-60.8135
 30
0.0
 10
-103.5143
 20
-61.6552
 30
0.0
 10
-103.5143
 20
-61.6552
 30
0.0
 10
-103.5143
 20
-61.6552
 30
0.0
 10
-103.5143
 20
-61.6552
 30
0.0
 10
-103.2518
 20
-62.5188
 30
0.0
 10
-103.2518
 20
-62.5188
 30
0.0
 10
-103.2518
 20
-62.5188
 30
0.0
 10
-103.2518
 20
-62.5188
 30
0.0
 10
-102.9999
 20
-63.4036
 30
0.0
 10
-102.9999
 20
-63.4036
 30
0.0
 10
-102.9999
 20
-63.4036
 30
0.0
 10
-102.9999
 20
-63.4036
 30
0.0
 10
-102.7586
 20
-64.3088
 30
0.0
 10
-102.7586
 20
-64.3088
 30
0.0
 10
-102.7586
 20
-64.3088
 30
0.0
 10
-102.7586
 20
-64.3088
 30
0.0
 10
-102.529
 20
-65.2341
 30
0.0
 10
-102.529
 20
-65.2341
 30
0.0
 10
-102.529
 20
-65.2341
 30
0.0
 10
-102.529
 20
-65.2341
 30
0.0
 10
-102.3113
 20
-66.1782
 30
0.0
 10
-102.3113
 20
-66.1782
 30
0.0
 10
-102.3113
 20
-66.1782
 30
0.0
 10
-102.3113
 20
-66.1782
 30
0.0
 10
-102.1063
 20
-67.1402
 30
0.0
 10
-102.1063
 20
-67.1402
 30
0.0
 10
-102.1063
 20
-67.1402
 30
0.0
 10
-102.1063
 20
-67.1402
 30
0.0
 10
-101.9141
 20
-68.1199
 30
0.0
 10
-101.9141
 20
-68.1199
 30
0.0
 10
-101.9141
 20
-68.1199
 30
0.0
 10
-101.9141
 20
-68.1199
 30
0.0
 10
-101.7352
 20
-69.1154
 30
0.0
 10
-101.7352
 20
-69.1154
 30
0.0
 10
-101.7352
 20
-69.1154
 30
0.0
 10
-101.7352
 20
-69.1154
 30
0.0
 10
-101.5705
 20
-70.1258
 30
0.0
 10
-101.5705
 20
-70.1258
 30
0.0
 10
-101.5705
 20
-70.1258
 30
0.0
 10
-101.5705
 20
-70.1258
 30
0.0
 10
-101.4202
 20
-71.1502
 30
0.0
 10
-101.4202
 20
-71.1502
 30
0.0
 10
-101.4202
 20
-71.1502
 30
0.0
 10
-101.4202
 20
-71.1502
 30
0.0
 10
-101.2844
 20
-72.1874
 30
0.0
 10
-101.2844
 20
-72.1874
 30
0.0
 10
-101.2844
 20
-72.1874
 30
0.0
 10
-101.2844
 20
-72.1874
 30
0.0
 10
-101.1641
 20
-73.2358
 30
0.0
 10
-101.1641
 20
-73.2358
 30
0.0
 10
-101.1641
 20
-73.2358
 30
0.0
 10
-101.1641
 20
-73.2358
 30
0.0
 10
-101.0586
 20
-74.2945
 30
0.0
 10
-101.0586
 20
-74.2945
 30
0.0
 10
-101.0586
 20
-74.2945
 30
0.0
 10
-101.0586
 20
-74.2945
 30
0.0
 10
-100.9693
 20
-75.3617
 30
0.0
 10
-100.9693
 20
-75.3617
 30
0.0
 10
-100.9693
 20
-75.3617
 30
0.0
 10
-100.9693
 20
-75.3617
 30
0.0
 10
-100.8956
 20
-76.4366
 30
0.0
 10
-100.8956
 20
-76.4366
 30
0.0
 10
-100.8956
 20
-76.4366
 30
0.0
 10
-100.8956
 20
-76.4366
 30
0.0
 10
-100.8384
 20
-77.5172
 30
0.0
 10
-100.8384
 20
-77.5172
 30
0.0
 10
-100.8384
 20
-77.5172
 30
0.0
 10
-100.8384
 20
-77.5172
 30
0.0
 10
-100.7972
 20
-78.6023
 30
0.0
 10
-100.7972
 20
-78.6023
 30
0.0
 10
-100.7972
 20
-78.6023
 30
0.0
 10
-100.7972
 20
-78.6023
 30
0.0
 10
-100.7725
 20
-79.6903
 30
0.0
 10
-100.7725
 20
-79.6903
 30
0.0
 10
-100.7725
 20
-79.6903
 30
0.0
 10
-100.7725
 20
-79.6903
 30
0.0
 10
-100.7644
 20
-80.78
 30
0.0
 10
-100.7644
 20
-80.78
 30
0.0
 10
-100.7644
 20
-80.78
 30
0.0
 10
-100.7644
 20
-80.78
 30
0.0
 10
-100.7725
 20
-81.8694
 30
0.0
 10
-100.7725
 20
-81.8694
 30
0.0
 10
-100.7725
 20
-81.8694
 30
0.0
 10
-100.7725
 20
-81.8694
 30
0.0
 10
-100.7972
 20
-82.9573
 30
0.0
 10
-100.7972
 20
-82.9573
 30
0.0
 10
-100.7972
 20
-82.9573
 30
0.0
 10
-100.7972
 20
-82.9573
 30
0.0
 10
-100.8384
 20
-84.0425
 30
0.0
 10
-100.8384
 20
-84.0425
 30
0.0
 10
-100.8384
 20
-84.0425
 30
0.0
 10
-100.8384
 20
-84.0425
 30
0.0
 10
-100.8956
 20
-85.123
 30
0.0
 10
-100.8956
 20
-85.123
 30
0.0
 10
-100.8956
 20
-85.123
 30
0.0
 10
-100.8956
 20
-85.123
 30
0.0
 10
-100.9693
 20
-86.198
 30
0.0
 10
-100.9693
 20
-86.198
 30
0.0
 10
-100.9693
 20
-86.198
 30
0.0
 10
-100.9693
 20
-86.198
 30
0.0
 10
-101.0586
 20
-87.2651
 30
0.0
 10
-101.0586
 20
-87.2651
 30
0.0
 10
-101.0586
 20
-87.2651
 30
0.0
 10
-101.0586
 20
-87.2651
 30
0.0
 10
-101.1641
 20
-88.3238
 30
0.0
 10
-101.1641
 20
-88.3238
 30
0.0
 10
-101.1641
 20
-88.3238
 30
0.0
 10
-101.1641
 20
-88.3238
 30
0.0
 10
-101.2844
 20
-89.3722
 30
0.0
 10
-101.2844
 20
-89.3722
 30
0.0
 10
-101.2844
 20
-89.3722
 30
0.0
 10
-101.2844
 20
-89.3722
 30
0.0
 10
-101.4202
 20
-90.4094
 30
0.0
 10
-101.4202
 20
-90.4094
 30
0.0
 10
-101.4202
 20
-90.4094
 30
0.0
 10
-101.4202
 20
-90.4094
 30
0.0
 10
-101.5705
 20
-91.4339
 30
0.0
 10
-101.5705
 20
-91.4339
 30
0.0
 10
-101.5705
 20
-91.4339
 30
0.0
 10
-101.5705
 20
-91.4339
 30
0.0
 10
-101.7352
 20
-92.4442
 30
0.0
 10
-101.7352
 20
-92.4442
 30
0.0
 10
-101.7352
 20
-92.4442
 30
0.0
 10
-101.7352
 20
-92.4442
 30
0.0
 10
-101.9141
 20
-93.4398
 30
0.0
 10
-101.9141
 20
-93.4398
 30
0.0
 10
-101.9141
 20
-93.4398
 30
0.0
 10
-101.9141
 20
-93.4398
 30
0.0
 10
-102.1063
 20
-94.4194
 30
0.0
 10
-102.1063
 20
-94.4194
 30
0.0
 10
-102.1063
 20
-94.4194
 30
0.0
 10
-102.1063
 20
-94.4194
 30
0.0
 10
-102.3113
 20
-95.3815
 30
0.0
 10
-102.3113
 20
-95.3815
 30
0.0
 10
-102.3113
 20
-95.3815
 30
0.0
 10
-102.3113
 20
-95.3815
 30
0.0
 10
-102.529
 20
-96.3255
 30
0.0
 10
-102.529
 20
-96.3255
 30
0.0
 10
-102.529
 20
-96.3255
 30
0.0
 10
-102.529
 20
-96.3255
 30
0.0
 10
-102.7586
 20
-97.2508
 30
0.0
 10
-102.7586
 20
-97.2508
 30
0.0
 10
-102.7586
 20
-97.2508
 30
0.0
 10
-102.7586
 20
-97.2508
 30
0.0
 10
-102.9999
 20
-98.1561
 30
0.0
 10
-102.9999
 20
-98.1561
 30
0.0
 10
-102.9999
 20
-98.1561
 30
0.0
 10
-102.9999
 20
-98.1561
 30
0.0
 10
-103.2518
 20
-99.0408
 30
0.0
 10
-103.2518
 20
-99.0408
 30
0.0
 10
-103.2518
 20
-99.0408
 30
0.0
 10
-103.2518
 20
-99.0408
 30
0.0
 10
-103.5143
 20
-99.9044
 30
0.0
 10
-103.5143
 20
-99.9044
 30
0.0
 10
-103.5143
 20
-99.9044
 30
0.0
 10
-103.5143
 20
-99.9044
 30
0.0
 10
-103.7863
 20
-100.7462
 30
0.0
 10
-103.7863
 20
-100.7462
 30
0.0
 10
-103.7863
 20
-100.7462
 30
0.0
 10
-103.7863
 20
-100.7462
 30
0.0
 10
-104.0678
 20
-101.5657
 30
0.0
 10
-104.0678
 20
-101.5657
 30
0.0
 10
-104.0678
 20
-101.5657
 30
0.0
 10
-104.0678
 20
-101.5657
 30
0.0
 10
-104.3578
 20
-102.3626
 30
0.0
 10
-104.3578
 20
-102.3626
 30
0.0
 10
-104.3578
 20
-102.3626
 30
0.0
 10
-104.3578
 20
-102.3626
 30
0.0
 10
-104.6558
 20
-103.1359
 30
0.0
 10
-104.6558
 20
-103.1359
 30
0.0
 10
-104.6558
 20
-103.1359
 30
0.0
 10
-104.6558
 20
-103.1359
 30
0.0
 10
-104.961
 20
-103.8862
 30
0.0
 10
-104.961
 20
-103.8862
 30
0.0
 10
-104.961
 20
-103.8862
 30
0.0
 10
-104.961
 20
-103.8862
 30
0.0
 10
-105.2736
 20
-104.6126
 30
0.0
 10
-105.2736
 20
-104.6126
 30
0.0
 10
-105.2736
 20
-104.6126
 30
0.0
 10
-105.2736
 20
-104.6126
 30
0.0
 10
-105.5921
 20
-105.315
 30
0.0
 10
-105.5921
 20
-105.315
 30
0.0
 10
-105.5921
 20
-105.315
 30
0.0
 10
-105.5921
 20
-105.315
 30
0.0
 10
-105.9163
 20
-105.9937
 30
0.0
 10
-105.9163
 20
-105.9937
 30
0.0
 10
-105.9163
 20
-105.9937
 30
0.0
 10
-105.9163
 20
-105.9937
 30
0.0
 10
-106.2458
 20
-106.6481
 30
0.0
 10
-106.2458
 20
-106.6481
 30
0.0
 10
-106.2458
 20
-106.6481
 30
0.0
 10
-106.2458
 20
-106.6481
 30
0.0
 10
-106.5803
 20
-107.2785
 30
0.0
 10
-106.5803
 20
-107.2785
 30
0.0
 10
-106.5803
 20
-107.2785
 30
0.0
 10
-106.5803
 20
-107.2785
 30
0.0
 10
-106.9182
 20
-107.8853
 30
0.0
 10
-106.9182
 20
-107.8853
 30
0.0
 10
-106.9182
 20
-107.8853
 30
0.0
 10
-106.9182
 20
-107.8853
 30
0.0
 10
-107.2601
 20
-108.4678
 30
0.0
 10
-107.2601
 20
-108.4678
 30
0.0
 10
-107.2601
 20
-108.4678
 30
0.0
 10
-107.2601
 20
-108.4678
 30
0.0
 10
-107.6051
 20
-109.0269
 30
0.0
 10
-107.6051
 20
-109.0269
 30
0.0
 10
-107.6051
 20
-109.0269
 30
0.0
 10
-114.8945
 20
-120.5458
 30
0.0
 10
-118.7641
 20
-133.897
 30
0.0
 10
-118.7641
 20
-147.5287
 30
0.0
 10
-118.7641
 20
-147.5287
 30
0.0
 10
-118.7641
 20
-147.5287
 30
0.0
 10
-118.7641
 20
-158.7799
 30
0.0
 10
-118.7641
 20
-158.7799
 30
0.0
 10
-118.7641
 20
-158.7799
 30
0.0
 10
-118.7641
 20
-158.7799
 30
0.0
 10
-88.7643
 20
-158.7799
 30
0.0
 10
-88.7643
 20
-158.7799
 30
0.0
 10
-88.7643
 20
-158.7799
 30
0.0
 10
-88.7643
 20
-158.7799
 30
0.0
 10
-88.7643
 20
-164.7799
 30
0.0
 10
-88.7643
 20
-164.7799
 30
0.0
 10
-88.7643
 20
-164.7799
 30
0.0
 10
-88.7643
 20
-164.7799
 30
0.0
 10
-118.7641
 20
-164.7799
 30
0.0
 10
-118.7641
 20
-164.7799
 30
0.0
 10
-118.7641
 20
-164.7799
 30
0.0
 10
-118.7641
 20
-168.0936
 30
0.0
 10
-116.0781
 20
-170.78
 30
0.0
 10
-112.7641
 20
-170.78
 30
0.0
 10
-112.7641
 20
-170.78
 30
0.0
 10
-112.7641
 20
-170.78
 30
0.0
 10
-9.7644
 20
-170.78
 30
0.0
 10
-9.7644
 20
-170.78
 30
0.0
 10
-9.7644
 20
-170.78
 30
0.0
 10
0.1769
 20
-170.78
 30
0.0
 10
8.2358
 20
-162.7211
 30
0.0
 10
8.2358
 20
-152.7798
 30
0.0
 10
8.2358
 20
-152.7798
 30
0.0
 10
8.2358
 20
-152.7798
 30
0.0
 10
8.2358
 20
-8.7799
 30
0.0
 10
8.2358
 20
-8.7799
 30
0.0
 10
8.2358
 20
-8.7799
 30
0.0
 10
8.2358
 20
1.1614
 30
0.0
 10
0.1769
 20
9.2202
 30
0.0
 10
-9.7644
 20
9.2202
 30
0.0
  0
SPLINE
  5
76
330
1F
100
AcDbEntity
  8
layer 1
370
    35
100
AcDbSpline
210
0.0
220
0.0
230
1.0
 70
    11
 71
     3
 72
    28
 73
    24
 74
     0
 42
0.000000001
 43
0.0000000001
 40
0.0
 40
0.0
 40
0.0
 40
0.0
 40
0.1428571428571428
 40
0.1428571428571428
 40
0.1428571428571428
 40
0.1428571428571428
 40
0.2857142857142857
 40
0.2857142857142857
 40
0.2857142857142857
 40
0.2857142857142857
 40
0.4285714285714285
 40
0.4285714285714285
 40
0.4285714285714285
 40
0.4285714285714285
 40
0.5714285714285714
 40
0.5714285714285714
 40
0.5714285714285714
 40
0.5714285714285714
 40
0.7142857142857143
 40
0.7142857142857143
 40
0.7142857142857143
 40
0.7142857142857143
 40
1.0
 40
1.0
 40
1.0
 40
1.0
 10
-3.7643
 20
-104.7798
 30
0.0
 10
-3.7643
 20
-108.9218
 30
0.0
 10
-7.1221
 20
-112.2799
 30
0.0
 10
-11.2644
 20
-112.2799
 30
0.0
 10
-11.2644
 20
-112.2799
 30
0.0
 10
-15.4063
 20
-112.2799
 30
0.0
 10
-18.7644
 20
-108.9218
 30
0.0
 10
-18.7644
 20
-104.7798
 30
0.0
 10
-18.7644
 20
-104.7798
 30
0.0
 10
-18.7644
 20
-104.7798
 30
0.0
 10
-18.7644
 20
-56.7798
 30
0.0
 10
-18.7644
 20
-56.7798
 30
0.0
 10
-18.7644
 20
-56.7798
 30
0.0
 10
-18.7644
 20
-52.6375
 30
0.0
 10
-15.4063
 20
-49.2798
 30
0.0
 10
-11.2644
 20
-49.2798
 30
0.0
 10
-11.2644
 20
-49.2798
 30
0.0
 10
-7.1221
 20
-49.2798
 30
0.0
 10
-3.7643
 20
-52.6375
 30
0.0
 10
-3.7643
 20
-56.7798
 30
0.0
 10
-3.7643
 20
-56.7798
 30
0.0
 10
-3.7643
 20
-56.7798
 30
0.0
 10
-3.7643
 20
-104.7798
 30
0.0
 10
-3.7643
 20
-104.7798
 30
0.0
  0
SPLINE
  5
77
330
1F
100
AcDbEntity
  8
layer 1
370
    35
100
AcDbSpline
210
0.0
220
0.0
230
1.0
 70
    11
 71
     3
 72
   328
 73
   324
 74
     0
 42
0.000000001
 43
0.0000000001
 40
0.0
 40
0.0
 40
0.0
 40
0.0
 40
0.0121951219512195
 40
0.0121951219512195
 40
0.0121951219512195
 40
0.0121951219512195
 40
0.024390243902439
 40
0.024390243902439
 40
0.024390243902439
 40
0.024390243902439
 40
0.0365853658536585
 40
0.0365853658536585
 40
0.0365853658536585
 40
0.0365853658536585
 40
0.0487804878048781
 40
0.0487804878048781
 40
0.0487804878048781
 40
0.0487804878048781
 40
0.0609756097560976
 40
0.0609756097560976
 40
0.0609756097560976
 40
0.0609756097560976
 40
0.0731707317073171
 40
0.0731707317073171
 40
0.0731707317073171
 40
0.0731707317073171
 40
0.0853658536585366
 40
0.0853658536585366
 40
0.0853658536585366
 40
0.0853658536585366
 40
0.0975609756097561
 40
0.0975609756097561
 40
0.0975609756097561
 40
0.0975609756097561
 40
0.1097560975609756
 40
0.1097560975609756
 40
0.1097560975609756
 40
0.1097560975609756
 40
0.1219512195121951
 40
0.1219512195121951
 40
0.1219512195121951
 40
0.1219512195121951
 40
0.1341463414634146
 40
0.1341463414634146
 40
0.1341463414634146
 40
0.1341463414634146
 40
0.1463414634146341
 40
0.1463414634146341
 40
0.1463414634146341
 40
0.1463414634146341
 40
0.1585365853658537
 40
0.1585365853658537
 40
0.1585365853658537
 40
0.1585365853658537
 40
0.1707317073170732
 40
0.1707317073170732
 40
0.1707317073170732
 40
0.1707317073170732
 40
0.1829268292682927
 40
0.1829268292682927
 40
0.1829268292682927
 40
0.1829268292682927
 40
0.1951219512195122
 40
0.1951219512195122
 40
0.1951219512195122
 40
0.1951219512195122
 40
0.2073170731707317
 40
0.2073170731707317
 40
0.2073170731707317
 40
0.2073170731707317
 40
0.2195121951219512
 40
0.2195121951219512
 40
0.2195121951219512
 40
0.2195121951219512
 40
0.2317073170731707
 40
0.2317073170731707
 40
0.2317073170731707
 40
0.2317073170731707
 40
0.2439024390243902
 40
0.2439024390243902
 40
0.2439024390243902
 40
0.2439024390243902
 40
0.2560975609756098
 40
0.2560975609756098
 40
0.2560975609756098
 40
0.2560975609756098
 40
0.2682926829268293
 40
0.2682926829268293
 40
0.2682926829268293
 40
0.2682926829268293
 40
0.2804878048780488
 40
0.2804878048780488
 40
0.2804878048780488
 40
0.2804878048780488
 40
0.2926829268292683
 40
0.2926829268292683
 40
0.2926829268292683
 40
0.2926829268292683
 40
0.3048780487804878
 40
0.3048780487804878
 40
0.3048780487804878
 40
0.3048780487804878
 40
0.3170731707317073
 40
0.3170731707317073
 40
0.3170731707317073
 40
0.3170731707317073
 40
0.3292682926829268
 40
0.3292682926829268
 40
0.3292682926829268
 40
0.3292682926829268
 40
0.3414634146341464
 40
0.3414634146341464
 40
0.3414634146341464
 40
0.3414634146341464
 40
0.3536585365853658
 40
0.3536585365853658
 40
0.3536585365853658
 40
0.3536585365853658
 40
0.3658536585365854
 40
0.3658536585365854
 40
0.3658536585365854
 40
0.3658536585365854
 40
0.3780487804878049
 40
0.3780487804878049
 40
0.3780487804878049
 40
0.3780487804878049
 40
0.3902439024390244
 40
0.3902439024390244
 40
0.3902439024390244
 40
0.3902439024390244
 40
0.4024390243902439
 40
0.4024390243902439
 40
0.4024390243902439
 40
0.4024390243902439
 40
0.4146341463414634
 40
0.4146341463414634
 40
0.4146341463414634
 40
0.4146341463414634
 40
0.4268292682926829
 40
0.4268292682926829
 40
0.4268292682926829
 40
0.4268292682926829
 40
0.4390243902439024
 40
0.4390243902439024
 40
0.4390243902439024
 40
0.4390243902439024
 40
0.451219512195122
 40
0.451219512195122
 40
0.451219512195122
 40
0.451219512195122
 40
0.4634146341463415
 40
0.4634146341463415
 40
0.4634146341463415
 40
0.4634146341463415
 40
0.475609756097561
 40
0.475609756097561
 40
0.475609756097561
 40
0.475609756097561
 40
0.4878048780487805
 40
0.4878048780487805
 40
0.4878048780487805
 40
0.4878048780487805
 40
0.5
 40
0.5
 40
0.5
 40
0.5
 40
0.5121951219512195
 40
0.5121951219512195
 40
0.5121951219512195
 40
0.5121951219512195
 40
0.524390243902439
 40
0.524390243902439
 40
0.524390243902439
 40
0.524390243902439
 40
0.5365853658536586
 40
0.5365853658536586
 40
0.5365853658536586
 40
0.5365853658536586
 40
0.5487804878048781
 40
0.5487804878048781
 40
0.5487804878048781
 40
0.5487804878048781
 40
0.5609756097560976
 40
0.5609756097560976
 40
0.5609756097560976
 40
0.5609756097560976
 40
0.573170731707317
 40
0.573170731707317
 40
0.573170731707317
 40
0.573170731707317
 40
0.5853658536585366
 40
0.5853658536585366
 40
0.5853658536585366
 40
0.5853658536585366
 40
0.5975609756097561
 40
0.5975609756097561
 40
0.5975609756097561
 40
0.5975609756097561
 40
0.6097560975609756
 40
0.6097560975609756
 40
0.6097560975609756
 40
0.6097560975609756
 40
0.6219512195121951
 40
0.6219512195121951
 40
0.6219512195121951
 40
0.6219512195121951
 40
0.6341463414634146
 40
0.6341463414634146
 40
0.6341463414634146
 40
0.6341463414634146
 40
0.6463414634146342
 40
0.6463414634146342
 40
0.6463414634146342
 40
0.6463414634146342
 40
0.6585365853658537
 40
0.6585365853658537
 40
0.6585365853658537
 40
0.6585365853658537
 40
0.6707317073170732
 40
0.6707317073170732
 40
0.6707317073170732
 40
0.6707317073170732
 40
0.6829268292682927
 40
0.6829268292682927
 40
0.6829268292682927
 40
0.6829268292682927
 40
0.6951219512195121
 40
0.6951219512195121
 40
0.6951219512195121
 40
0.6951219512195121
 40
0.7073170731707317
 40
0.7073170731707317
 40
0.7073170731707317
 40
0.7073170731707317
 40
0.7195121951219512
 40
0.7195121951219512
 40
0.7195121951219512
 40
0.7195121951219512
 40
0.7317073170731707
 40
0.7317073170731707
 40
0.7317073170731707
 40
0.7317073170731707
 40
0.7439024390243902
 40
0.7439024390243902
 40
0.7439024390243902
 40
0.7439024390243902
 40
0.7560975609756098
 40
0.7560975609756098
 40
0.7560975609756098
 40
0.7560975609756098
 40
0.7682926829268293
 40
0.7682926829268293
 40
0.7682926829268293
 40
0.7682926829268293
 40
0.7804878048780488
 40
0.7804878048780488
 40
0.7804878048780488
 40
0.7804878048780488
 40
0.7926829268292683
 40
0.7926829268292683
 40
0.7926829268292683
 40
0.7926829268292683
 40
0.8048780487804879
 40
0.8048780487804879
 40
0.8048780487804879
 40
0.8048780487804879
 40
0.8170731707317073
 40
0.8170731707317073
 40
0.8170731707317073
 40
0.8170731707317073
 40
0.8292682926829268
 40
0.8292682926829268
 40
0.8292682926829268
 40
0.8292682926829268
 40
0.8414634146341463
 40
0.8414634146341463
 40
0.8414634146341463
 40
0.8414634146341463
 40
0.8536585365853658
 40
0.8536585365853658
 40
0.8536585365853658
 40
0.8536585365853658
 40
0.8658536585365854
 40
0.8658536585365854
 40
0.8658536585365854
 40
0.8658536585365854
 40
0.8780487804878049
 40
0.8780487804878049
 40
0.8780487804878049
 40
0.8780487804878049
 40
0.8902439024390244
 40
0.8902439024390244
 40
0.8902439024390244
 40
0.8902439024390244
 40
0.9024390243902439
 40
0.9024390243902439
 40
0.9024390243902439
 40
0.9024390243902439
 40
0.9146341463414634
 40
0.9146341463414634
 40
0.9146341463414634
 40
0.9146341463414634
 40
0.926829268292683
 40
0.926829268292683
 40
0.926829268292683
 40
0.926829268292683
 40
0.9390243902439024
 40
0.9390243902439024
 40
0.9390243902439024
 40
0.9390243902439024
 40
0.9512195121951219
 40
0.9512195121951219
 40
0.9512195121951219
 40
0.9512195121951219
 40
0.9634146341463414
 40
0.9634146341463414
 40
0.9634146341463414
 40
0.9634146341463414
 40
0.975609756097561
 40
0.975609756097561
 40
0.975609756097561
 40
0.975609756097561
 40
1.0
 40
1.0
 40
1.0
 40
1.0
 10
-9.7644
 20
9.2202
 30
0.0
 10
-9.7644
 20
9.2202
 30
0.0
 10
-112.7641
 20
9.2202
 30
0.0
 10
-112.7641
 20
9.2202
 30
0.0
 10
-112.7641
 20
9.2202
 30
0.0
 10
-116.0781
 20
9.2202
 30
0.0
 10
-118.7641
 20
6.5338
 30
0.0
 10
-118.7641
 20
3.2202
 30
0.0
 10
-118.7641
 20
3.2202
 30
0.0
 10
-118.7641
 20
3.2202
 30
0.0
 10
-88.7643
 20
3.2202
 30
0.0
 10
-88.7643
 20
3.2202
 30
0.0
 10
-88.7643
 20
3.2202
 30
0.0
 10
-88.7643
 20
3.2202
 30
0.0
 10
-88.7643
 20
-2.7799
 30
0.0
 10
-88.7643
 20
-2.7799
 30
0.0
 10
-88.7643
 20
-2.7799
 30
0.0
 10
-88.7643
 20
-2.7799
 30
0.0
 10
-118.7641
 20
-2.7799
 30
0.0
 10
-118.7641
 20
-2.7799
 30
0.0
 10
-118.7641
 20
-2.7799
 30
0.0
 10
-118.7641
 20
-2.7799
 30
0.0
 10
-118.7641
 20
-14.031
 30
0.0
 10
-118.7641
 20
-14.031
 30
0.0
 10
-118.7641
 20
-14.031
 30
0.0
 10
-118.7641
 20
-27.6627
 30
0.0
 10
-114.8945
 20
-41.0138
 30
0.0
 10
-107.6051
 20
-52.5327
 30
0.0
 10
-107.6051
 20
-52.5327
 30
0.0
 10
-107.6051
 20
-52.5327
 30
0.0
 10
-107.2601
 20
-53.0919
 30
0.0
 10
-107.2601
 20
-53.0919
 30
0.0
 10
-107.2601
 20
-53.0919
 30
0.0
 10
-107.2601
 20
-53.0919
 30
0.0
 10
-106.9182
 20
-53.6743
 30
0.0
 10
-106.9182
 20
-53.6743
 30
0.0
 10
-106.9182
 20
-53.6743
 30
0.0
 10
-106.9182
 20
-53.6743
 30
0.0
 10
-106.5803
 20
-54.2811
 30
0.0
 10
-106.5803
 20
-54.2811
 30
0.0
 10
-106.5803
 20
-54.2811
 30
0.0
 10
-106.5803
 20
-54.2811
 30
0.0
 10
-106.2458
 20
-54.9115
 30
0.0
 10
-106.2458
 20
-54.9115
 30
0.0
 10
-106.2458
 20
-54.9115
 30
0.0
 10
-106.2458
 20
-54.9115
 30
0.0
 10
-105.9163
 20
-55.5659
 30
0.0
 10
-105.9163
 20
-55.5659
 30
0.0
 10
-105.9163
 20
-55.5659
 30
0.0
 10
-105.9163
 20
-55.5659
 30
0.0
 10
-105.5921
 20
-56.2447
 30
0.0
 10
-105.5921
 20
-56.2447
 30
0.0
 10
-105.5921
 20
-56.2447
 30
0.0
 10
-105.5921
 20
-56.2447
 30
0.0
 10
-105.2736
 20
-56.947
 30
0.0
 10
-105.2736
 20
-56.947
 30
0.0
 10
-105.2736
 20
-56.947
 30
0.0
 10
-105.2736
 20
-56.947
 30
0.0
 10
-104.961
 20
-57.6734
 30
0.0
 10
-104.961
 20
-57.6734
 30
0.0
 10
-104.961
 20
-57.6734
 30
0.0
 10
-104.961
 20
-57.6734
 30
0.0
 10
-104.6558
 20
-58.4238
 30
0.0
 10
-104.6558
 20
-58.4238
 30
0.0
 10
-104.6558
 20
-58.4238
 30
0.0
 10
-104.6558
 20
-58.4238
 30
0.0
 10
-104.3578
 20
-59.197
 30
0.0
 10
-104.3578
 20
-59.197
 30
0.0
 10
-104.3578
 20
-59.197
 30
0.0
 10
-104.3578
 20
-59.197
 30
0.0
 10
-104.0678
 20
-59.994
 30
0.0
 10
-104.0678
 20
-59.994
 30
0.0
 10
-104.0678
 20
-59.994
 30
0.0
 10
-104.0678
 20
-59.994
 30
0.0
 10
-103.7863
 20
-60.8135
 30
0.0
 10
-103.7863
 20
-60.8135
 30
0.0
 10
-103.7863
 20
-60.8135
 30
0.0
 10
-103.7863
 20
-60.8135
 30
0.0
 10
-103.5143
 20
-61.6552
 30
0.0
 10
-103.5143
 20
-61.6552
 30
0.0
 10
-103.5143
 20
-61.6552
 30
0.0
 10
-103.5143
 20
-61.6552
 30
0.0
 10
-103.2518
 20
-62.5188
 30
0.0
 10
-103.2518
 20
-62.5188
 30
0.0
 10
-103.2518
 20
-62.5188
 30
0.0
 10
-103.2518
 20
-62.5188
 30
0.0
 10
-102.9999
 20
-63.4036
 30
0.0
 10
-102.9999
 20
-63.4036
 30
0.0
 10
-102.9999
 20
-63.4036
 30
0.0
 10
-102.9999
 20
-63.4036
 30
0.0
 10
-102.7586
 20
-64.3088
 30
0.0
 10
-102.7586
 20
-64.3088
 30
0.0
 10
-102.7586
 20
-64.3088
 30
0.0
 10
-102.7586
 20
-64.3088
 30
0.0
 10
-102.529
 20
-65.2341
 30
0.0
 10
-102.529
 20
-65.2341
 30
0.0
 10
-102.529
 20
-65.2341
 30
0.0
 10
-102.529
 20
-65.2341
 30
0.0
 10
-102.3113
 20
-66.1782
 30
0.0
 10
-102.3113
 20
-66.1782
 30
0.0
 10
-102.3113
 20
-66.1782
 30
0.0
 10
-102.3113
 20
-66.1782
 30
0.0
 10
-102.1063
 20
-67.1402
 30
0.0
 10
-102.1063
 20
-67.1402
 30
0.0
 10
-102.1063
 20
-67.1402
 30
0.0
 10
-102.1063
 20
-67.1402
 30
0.0
 10
-101.9141
 20
-68.1199
 30
0.0
 10
-101.9141
 20
-68.1199
 30
0.0
 10
-101.9141
 20
-68.1199
 30
0.0
 10
-101.9141
 20
-68.1199
 30
0.0
 10
-101.7352
 20
-69.1154
 30
0.0
 10
-101.7352
 20
-69.1154
 30
0.0
 10
-101.7352
 20
-69.1154
 30
0.0
 10
-101.7352
 20
-69.1154
 30
0.0
 10
-101.5705
 20
-70.1258
 30
0.0
 10
-101.5705
 20
-70.1258
 30
0.0
 10
-101.5705
 20
-70.1258
 30
0.0
 10
-101.5705
 20
-70.1258
 30
0.0
 10
-101.4202
 20
-71.1502
 30
0.0
 10
-101.4202
 20
-71.1502
 30
0.0
 10
-101.4202
 20
-71.1502
 30
0.0
 10
-101.4202
 20
-71.1502
 30
0.0
 10
-101.2844
 20
-72.1874
 30
0.0
 10
-101.2844
 20
-72.1874
 30
0.0
 10
-101.2844
 20
-72.1874
 30
0.0
 10
-101.2844
 20
-72.1874
 30
0.0
 10
-101.1641
 20
-73.2358
 30
0.0
 10
-101.1641
 20
-73.2358
 30
0.0
 10
-101.1641
 20
-73.2358
 30
0.0
 10
-101.1641
 20
-73.2358
 30
0.0
 10
-101.0586
 20
-74.2945
 30
0.0
 10
-101.0586
 20
-74.2945
 30
0.0
 10
-101.0586
 20
-74.2945
 30
0.0
 10
-101.0586
 20
-74.2945
 30
0.0
 10
-100.9693
 20
-75.3617
 30
0.0
 10
-100.9693
 20
-75.3617
 30
0.0
 10
-100.9693
 20
-75.3617
 30
0.0
 10
-100.9693
 20
-75.3617
 30
0.0
 10
-100.8956
 20
-76.4366
 30
0.0
 10
-100.8956
 20
-76.4366
 30
0.0
 10
-100.8956
 20
-76.4366
 30
0.0
 10
-100.8956
 20
-76.4366
 30
0.0
 10
-100.8384
 20
-77.5172
 30
0.0
 10
-100.8384
 20
-77.5172
 30
0.0
 10
-100.8384
 20
-77.5172
 30
0.0
 10
-100.8384
 20
-77.5172
 30
0.0
 10
-100.7972
 20
-78.6023
 30
0.0
 10
-100.7972
 20
-78.6023
 30
0.0
 10
-100.7972
 20
-78.6023
 30
0.0
 10
-100.7972
 20
-78.6023
 30
0.0
 10
-100.7725
 20
-79.6903
 30
0.0
 10
-100.7725
 20
-79.6903
 30
0.0
 10
-100.7725
 20
-79.6903
 30
0.0
 10
-100.7725
 20
-79.6903
 30
0.0
 10
-100.7644
 20
-80.78
 30
0.0
 10
-100.7644
 20
-80.78
 30
0.0
 10
-100.7644
 20
-80.78
 30
0.0
 10
-100.7644
 20
-80.78
 30
0.0
 10
-100.7725
 20
-81.8694
 30
0.0
 10
-100.7725
 20
-81.8694
 30
0.0
 10
-100.7725
 20
-81.8694
 30
0.0
 10
-100.7725
 20
-81.8694
 30
0.0
 10
-100.7972
 20
-82.9573
 30
0.0
 10
-100.7972
 20
-82.9573
 30
0.0
 10
-100.7972
 20
-82.9573
 30
0.0
 10
-100.7972
 20
-82.9573
 30
0.0
 10
-100.8384
 20
-84.0425
 30
0.0
 10
-100.8384
 20
-84.0425
 30
0.0
 10
-100.8384
 20
-84.0425
 30
0.0
 10
-100.8384
 20
-84.0425
 30
0.0
 10
-100.8956
 20
-85.123
 30
0.0
 10
-100.8956
 20
-85.123
 30
0.0
 10
-100.8956
 20
-85.123
 30
0.0
 10
-100.8956
 20
-85.123
 30
0.0
 10
-100.9693
 20
-86.198
 30
0.0
 10
-100.9693
 20
-86.198
 30
0.0
 10
-100.9693
 20
-86.198
 30
0.0
 10
-100.9693
 20
-86.198
 30
0.0
 10
-101.0586
 20
-87.2651
 30
0.0
 10
-101.0586
 20
-87.2651
 30
0.0
 10
-101.0586
 20
-87.2651
 30
0.0
 10
-101.0586
 20
-87.2651
 30
0.0
 10
-101.1641
 20
-88.3238
 30
0.0
 10
-101.1641
 20
-88.3238
 30
0.0
 10
-101.1641
 20
-88.3238
 30
0.0
 10
-101.1641
 20
-88.3238
 30
0.0
 10
-101.2844
 20
-89.3722
 30
0.0
 10
-101.2844
 20
-89.3722
 30
0.0
 10
-101.2844
 20
-89.3722
 30
0.0
 10
-101.2844
 20
-89.3722
 30
0.0
 10
-101.4202
 20
-90.4094
 30
0.0
 10
-101.4202
 20
-90.4094
 30
0.0
 10
-101.4202
 20
-90.4094
 30
0.0
 10
-101.4202
 20
-90.4094
 30
0.0
 10
-101.5705
 20
-91.4339
 30
0.0
 10
-101.5705
 20
-91.4339
 30
0.0
 10
-101.5705
 20
-91.4339
 30
0.0
 10
-101.5705
 20
-91.4339
 30
0.0
 10
-101.7352
 20
-92.4442
 30
0.0
 10
-101.7352
 20
-92.4442
 30
0.0
 10
-101.7352
 20
-92.4442
 30
0.0
 10
-101.7352
 20
-92.4442
 30
0.0
 10
-101.9141
 20
-93.4398
 30
0.0
 10
-101.9141
 20
-93.4398
 30
0.0
 10
-101.9141
 20
-93.4398
 30
0.0
 10
-101.9141
 20
-93.4398
 30
0.0
 10
-102.1063
 20
-94.4194
 30
0.0
 10
-102.1063
 20
-94.4194
 30
0.0
 10
-102.1063
 20
-94.4194
 30
0.0
 10
-102.1063
 20
-94.4194
 30
0.0
 10
-102.3113
 20
-95.3815
 30
0.0
 10
-102.3113
 20
-95.3815
 30
0.0
 10
-102.3113
 20
-95.3815
 30
0.0
 10
-102.3113
 20
-95.3815
 30
0.0
 10
-102.529
 20
-96.3255
 30
0.0
 10
-102.529
 20
-96.3255
 30
0.0
 10
-102.529
 20
-96.3255
 30
0.0
 10
-102.529
 20
-96.3255
 30
0.0
 10
-102.7586
 20
-97.2508
 30
0.0
 10
-102.7586
 20
-97.2508
 30
0.0
 10
-102.7586
 20
-97.2508
 30
0.0
 10
-102.7586
 20
-97.2508
 30
0.0
 10
-102.9999
 20
-98.1561
 30
0.0
 10
-102.9999
 20
-98.1561
 30
0.0
 10
-102.9999
 20
-98.1561
 30
0.0
 10
-102.9999
 20
-98.1561
 30
0.0
 10
-103.2518
 20
-99.0408
 30
0.0
 10
-103.2518
 20
-99.0408
 30
0.0
 10
-103.2518
 20
-99.0408
 30
0.0
 10
-103.2518
 20
-99.0408
 30
0.0
 10
-103.5143
 20
-99.9044
 30
0.0
 10
-103.5143
 20
-99.9044
 30
0.0
 10
-103.5143
 20
-99.9044
 30
0.0
 10
-103.5143
 20
-99.9044
 30
0.0
 10
-103.7863
 20
-100.7462
 30
0.0
 10
-103.7863
 20
-100.7462
 30
0.0
 10
-103.7863
 20
-100.7462
 30
0.0
 10
-103.7863
 20
-100.7462
 30
0.0
 10
-104.0678
 20
-101.5657
 30
0.0
 10
-104.0678
 20
-101.5657
 30
0.0
 10
-104.0678
 20
-101.5657
 30
0.0
 10
-104.0678
 20
-101.5657
 30
0.0
 10
-104.3578
 20
-102.3626
 30
0.0
 10
-104.3578
 20
-102.3626
 30
0.0
 10
-104.3578
 20
-102.3626
 30
0.0
 10
-104.3578
 20
-102.3626
 30
0.0
 10
-104.6558
 20
-103.1359
 30
0.0
 10
-104.6558
 20
-103.1359
 30
0.0
 10
-104.6558
 20
-103.1359
 30
0.0
 10
-104.6558
 20
-103.1359
 30
0.0
 10
-104.961
 20
-103.8862
 30
0.0
 10
-104.961
 20
-103.8862
 30
0.0
 10
-104.961
 20
-103.8862
 30
0.0
 10
-104.961
 20
-103.8862
 30
0.0
 10
-105.2736
 20
-104.6126
 30
0.0
 10
-105.2736
 20
-104.6126
 30
0.0
 10
-105.2736
 20
-104.6126
 30
0.0
 10
-105.2736
 20
-104.6126
 30
0.0
 10
-105.5921
 20
-105.315
 30
0.0
 10
-105.5921
 20
-105.315
 30
0.0
 10
-105.5921
 20
-105.315
 30
0.0
 10
-105.5921
 20
-105.315
 30
0.0
 10
-105.9163
 20
-105.9937
 30
0.0
 10
-105.9163
 20
-105.9937
 30
0.0
 10
-105.9163
 20
-105.9937
 30
0.0
 10
-105.9163
 20
-105.9937
 30
0.0
 10
-106.2458
 20
-106.6481
 30
0.0
 10
-106.2458
 20
-106.6481
 30
0.0
 10
-106.2458
 20
-106.6481
 30
0.0
 10
-106.2458
 20
-106.6481
 30
0.0
 10
-106.5803
 20
-107.2785
 30
0.0
 10
-106.5803
 20
-107.2785
 30
0.0
 10
-106.5803
 20
-107.2785
 30
0.0
 10
-106.5803
 20
-107.2785
 30
0.0
 10
-106.9182
 20
-107.8853
 30
0.0
 10
-106.9182
 20
-107.8853
 30
0.0
 10
-106.9182
 20
-107.8853
 30
0.0
 10
-106.9182
 20
-107.8853
 30
0.0
 10
-107.2601
 20
-108.4678
 30
0.0
 10
-107.2601
 20
-108.4678
 30
0.0
 10
-107.2601
 20
-108.4678
 30
0.0
 10
-107.2601
 20
-108.4678
 30
0.0
 10
-107.6051
 20
-109.0269
 30
0.0
 10
-107.6051
 20
-109.0269
 30
0.0
 10
-107.6051
 20
-109.0269
 30
0.0
 10
-114.8945
 20
-120.5458
 30
0.0
 10
-118.7641
 20
-133.897
 30
0.0
 10
-118.7641
 20
-147.5287
 30
0.0
 10
-118.7641
 20
-147.5287
 30
0.0
 10
-118.7641
 20
-147.5287
 30
0.0
 10
-118.7641
 20
-158.7799
 30
0.0
 10
-118.7641
 20
-158.7799
 30
0.0
 10
-118.7641
 20
-158.7799
 30
0.0
 10
-118.7641
 20
-158.7799
 30
0.0
 10
-88.7643
 20
-158.7799
 30
0.0
 10
-88.7643
 20
-158.7799
 30
0.0
 10
-88.7643
 20
-158.7799
 30
0.0
 10
-88.7643
 20
-158.7799
 30
0.0
 10
-88.7643
 20
-164.7799
 30
0.0
 10
-88.7643
 20
-164.7799
 30
0.0
 10
-88.7643
 20
-164.7799
 30
0.0
 10
-88.7643
 20
-164.7799
 30
0.0
 10
-118.7641
 20
-164.7799
 30
0.0
 10
-118.7641
 20
-164.7799
 30
0.0
 10
-118.7641
 20
-164.7799
 30
0.0
 10
-118.7641
 20
-168.0936
 30
0.0
 10
-116.0781
 20
-170.78
 30
0.0
 10
-112.7641
 20
-170.78
 30
0.0
 10
-112.7641
 20
-170.78
 30
0.0
 10
-112.7641
 20
-170.78
 30
0.0
 10
-9.7644
 20
-170.78
 30
0.0
 10
-9.7644
 20
-170.78
 30
0.0
 10
-9.7644
 20
-170.78
 30
0.0
 10
0.1769
 20
-170.78
 30
0.0
 10
8.2358
 20
-162.7211
 30
0.0
 10
8.2358
 20
-152.7798
 30
0.0
 10
8.2358
 20
-152.7798
 30
0.0
 10
8.2358
 20
-152.7798
 30
0.0
 10
8.2358
 20
-8.7799
 30
0.0
 10
8.2358
 20
-8.7799
 30
0.0
 10
8.2358
 20
-8.7799
 30
0.0
 10
8.2358
 20
1.1614
 30
0.0
 10
0.1769
 20
9.2202
 30
0.0
 10
-9.7644
 20
9.2202
 30
0.0
  0
SPLINE
  5
78
330
1F
100
AcDbEntity
  8
layer 1
 62
     7
100
AcDbSpline
210
0.0
220
0.0
230
1.0
 70
    11
 71
     3
 72
    60
 73
    56
 74
     0
 42
0.000000001
 43
0.0000000001
 40
0.0
 40
0.0
 40
0.0
 40
0.0
 40
0.0666666666666667
 40
0.0666666666666667
 40
0.0666666666666667
 40
0.0666666666666667
 40
0.1333333333333333
 40
0.1333333333333333
 40
0.1333333333333333
 40
0.1333333333333333
 40
0.2
 40
0.2
 40
0.2
 40
0.2
 40
0.2666666666666667
 40
0.2666666666666667
 40
0.2666666666666667
 40
0.2666666666666667
 40
0.3333333333333333
 40
0.3333333333333333
 40
0.3333333333333333
 40
0.3333333333333333
 40
0.4
 40
0.4
 40
0.4
 40
0.4
 40
0.4666666666666667
 40
0.4666666666666667
 40
0.4666666666666667
 40
0.4666666666666667
 40
0.5333333333333333
 40
0.5333333333333333
 40
0.5333333333333333
 40
0.5333333333333333
 40
0.6
 40
0.6
 40
0.6
 40
0.6
 40
0.6666666666666666
 40
0.6666666666666666
 40
0.6666666666666666
 40
0.6666666666666666
 40
0.7333333333333333
 40
0.7333333333333333
 40
0.7333333333333333
 40
0.7333333333333333
 40
0.8
 40
0.8
 40
0.8
 40
0.8
 40
0.8666666666666667
 40
0.8666666666666667
 40
0.8666666666666667
 40
0.8666666666666667
 40
1.0
 40
1.0
 40
1.0
 40
1.0
 10
-123.8162
 20
-158.7798
 30
0.0
 10
-123.8162
 20
-158.7798
 30
0.0
 10
-195.8164
 20
-158.7798
 30
0.0
 10
-195.8164
 20
-158.7798
 30
0.0
 10
-195.8164
 20
-158.7798
 30
0.0
 10
-195.8164
 20
-158.7798
 30
0.0
 10
-195.8164
 20
-164.7799
 30
0.0
 10
-195.8164
 20
-164.7799
 30
0.0
 10
-195.8164
 20
-164.7799
 30
0.0
 10
-195.8164
 20
-164.7799
 30
0.0
 10
-123.8162
 20
-164.7799
 30
0.0
 10
-123.8162
 20
-164.7799
 30
0.0
 10
-123.8162
 20
-164.7799
 30
0.0
 10
-123.8162
 20
-168.0935
 30
0.0
 10
-126.5026
 20
-170.7799
 30
0.0
 10
-129.8162
 20
-170.7799
 30
0.0
 10
-129.8162
 20
-170.7799
 30
0.0
 10
-129.8162
 20
-170.7799
 30
0.0
 10
-261.8162
 20
-170.7799
 30
0.0
 10
-261.8162
 20
-170.7799
 30
0.0
 10
-261.8162
 20
-170.7799
 30
0.0
 10
-265.1298
 20
-170.7799
 30
0.0
 10
-267.8162
 20
-168.0935
 30
0.0
 10
-267.8162
 20
-164.7799
 30
0.0
 10
-267.8162
 20
-164.7799
 30
0.0
 10
-267.8162
 20
-164.7799
 30
0.0
 10
-267.8162
 20
3.2202
 30
0.0
 10
-267.8162
 20
3.2202
 30
0.0
 10
-267.8162
 20
3.2202
 30
0.0
 10
-267.8162
 20
6.5339
 30
0.0
 10
-265.1298
 20
9.2199
 30
0.0
 10
-261.8162
 20
9.2199
 30
0.0
 10
-261.8162
 20
9.2199
 30
0.0
 10
-261.8162
 20
9.2199
 30
0.0
 10
-129.8162
 20
9.2199
 30
0.0
 10
-129.8162
 20
9.2199
 30
0.0
 10
-129.8162
 20
9.2199
 30
0.0
 10
-126.5026
 20
9.2199
 30
0.0
 10
-123.8162
 20
6.5339
 30
0.0
 10
-123.8162
 20
3.2202
 30
0.0
 10
-123.8162
 20
3.2202
 30
0.0
 10
-123.8162
 20
3.2202
 30
0.0
 10
-195.8164
 20
3.2202
 30
0.0
 10
-195.8164
 20
3.2202
 30
0.0
 10
-195.8164
 20
3.2202
 30
0.0
 10
-195.8164
 20
3.2202
 30
0.0
 10
-195.8164
 20
-2.7798
 30
0.0
 10
-195.8164
 20
-2.7798
 30
0.0
 10
-195.8164
 20
-2.7798
 30
0.0
 10
-195.8164
 20
-2.7798
 30
0.0
 10
-123.8162
 20
-2.7798
 30
0.0
 10
-123.8162
 20
-2.7798
 30
0.0
 10
-123.8162
 20
-2.7798
 30
0.0
 10
-123.8162
 20
-2.7798
 30
0.0
 10
-123.8162
 20
-158.7798
 30
0.0
 10
-123.8162
 20
-158.7798
 30
0.0
  0
SPLINE
  5
79
330
1F
100
AcDbEntity
  8
layer 1
370
    35
100
AcDbSpline
210
0.0
220
0.0
230
1.0
 70
    11
 71
     3
 72
    60
 73
    56
 74
     0
 42
0.000000001
 43
0.0000000001
 40
0.0
 40
0.0
 40
0.0
 40
0.0
 40
0.0666666666666667
 40
0.0666666666666667
 40
0.0666666666666667
 40
0.0666666666666667
 40
0.1333333333333333
 40
0.1333333333333333
 40
0.1333333333333333
 40
0.1333333333333333
 40
0.2
 40
0.2
 40
0.2
 40
0.2
 40
0.2666666666666667
 40
0.2666666666666667
 40
0.2666666666666667
 40
0.2666666666666667
 40
0.3333333333333333
 40
0.3333333333333333
 40
0.3333333333333333
 40
0.3333333333333333
 40
0.4
 40
0.4
 40
0.4
 40
0.4
 40
0.4666666666666667
 40
0.4666666666666667
 40
0.4666666666666667
 40
0.4666666666666667
 40
0.5333333333333333
 40
0.5333333333333333
 40
0.5333333333333333
 40
0.5333333333333333
 40
0.6
 40
0.6
 40
0.6
 40
0.6
 40
0.6666666666666666
 40
0.6666666666666666
 40
0.6666666666666666
 40
0.6666666666666666
 40
0.7333333333333333
 40
0.7333333333333333
 40
0.7333333333333333
 40
0.7333333333333333
 40
0.8
 40
0.8
 40
0.8
 40
0.8
 40
0.8666666666666667
 40
0.8666666666666667
 40
0.8666666666666667
 40
0.8666666666666667
 40
1.0
 40
1.0
 40
1.0
 40
1.0
 10
-123.8162
 20
-158.7798
 30
0.0
 10
-123.8162
 20
-158.7798
 30
0.0
 10
-195.8164
 20
-158.7798
 30
0.0
 10
-195.8164
 20
-158.7798
 30
0.0
 10
-195.8164
 20
-158.7798
 30
0.0
 10
-195.8164
 20
-158.7798
 30
0.0
 10
-195.8164
 20
-164.7799
 30
0.0
 10
-195.8164
 20
-164.7799
 30
0.0
 10
-195.8164
 20
-164.7799
 30
0.0
 10
-195.8164
 20
-164.7799
 30
0.0
 10
-123.8162
 20
-164.7799
 30
0.0
 10
-123.8162
 20
-164.7799
 30
0.0
 10
-123.8162
 20
-164.7799
 30
0.0
 10
-123.8162
 20
-168.0935
 30
0.0
 10
-126.5026
 20
-170.7799
 30
0.0
 10
-129.8162
 20
-170.7799
 30
0.0
 10
-129.8162
 20
-170.7799
 30
0.0
 10
-129.8162
 20
-170.7799
 30
0.0
 10
-261.8162
 20
-170.7799
 30
0.0
 10
-261.8162
 20
-170.7799
 30
0.0
 10
-261.8162
 20
-170.7799
 30
0.0
 10
-265.1298
 20
-170.7799
 30
0.0
 10
-267.8162
 20
-168.0935
 30
0.0
 10
-267.8162
 20
-164.7799
 30
0.0
 10
-267.8162
 20
-164.7799
 30
0.0
 10
-267.8162
 20
-164.7799
 30
0.0
 10
-267.8162
 20
3.2202
 30
0.0
 10
-267.8162
 20
3.2202
 30
0.0
 10
-267.8162
 20
3.2202
 30
0.0
 10
-267.8162
 20
6.5339
 30
0.0
 10
-265.1298
 20
9.2199
 30
0.0
 10
-261.8162
 20
9.2199
 30
0.0
 10
-261.8162
 20
9.2199
 30
0.0
 10
-261.8162
 20
9.2199
 30
0.0
 10
-129.8162
 20
9.2199
 30
0.0
 10
-129.8162
 20
9.2199
 30
0.0
 10
-129.8162
 20
9.2199
 30
0.0
 10
-126.5026
 20
9.2199
 30
0.0
 10
-123.8162
 20
6.5339
 30
0.0
 10
-123.8162
 20
3.2202
 30
0.0
 10
-123.8162
 20
3.2202
 30
0.0
 10
-123.8162
 20
3.2202
 30
0.0
 10
-195.8164
 20
3.2202
 30
0.0
 10
-195.8164
 20
3.2202
 30
0.0
 10
-195.8164
 20
3.2202
 30
0.0
 10
-195.8164
 20
3.2202
 30
0.0
 10
-195.8164
 20
-2.7798
 30
0.0
 10
-195.8164
 20
-2.7798
 30
0.0
 10
-195.8164
 20
-2.7798
 30
0.0
 10
-195.8164
 20
-2.7798
 30
0.0
 10
-123.8162
 20
-2.7798
 30
0.0
 10
-123.8162
 20
-2.7798
 30
0.0
 10
-123.8162
 20
-2.7798
 30
0.0
 10
-123.8162
 20
-2.7798
 30
0.0
 10
-123.8162
 20
-158.7798
 30
0.0
 10
-123.8162
 20
-158.7798
 30
0.0
  0
SPLINE
  5
7A
330
1F
100
AcDbEntity
  8
layer 1
 62
     7
100
AcDbSpline
210
0.0
220
0.0
230
1.0
 70
    11
 71
     3
 72
    44
 73
    40
 74
     0
 42
0.000000001
 43
0.0000000001
 40
0.0
 40
0.0
 40
0.0
 40
0.0
 40
0.0909090909090909
 40
0.0909090909090909
 40
0.0909090909090909
 40
0.0909090909090909
 40
0.1818181818181818
 40
0.1818181818181818
 40
0.1818181818181818
 40
0.1818181818181818
 40
0.2727272727272727
 40
0.2727272727272727
 40
0.2727272727272727
 40
0.2727272727272727
 40
0.3636363636363636
 40
0.3636363636363636
 40
0.3636363636363636
 40
0.3636363636363636
 40
0.4545454545454545
 40
0.4545454545454545
 40
0.4545454545454545
 40
0.4545454545454545
 40
0.5454545454545454
 40
0.5454545454545454
 40
0.5454545454545454
 40
0.5454545454545454
 40
0.6363636363636364
 40
0.6363636363636364
 40
0.6363636363636364
 40
0.6363636363636364
 40
0.7272727272727273
 40
0.7272727272727273
 40
0.7272727272727273
 40
0.7272727272727273
 40
0.8181818181818182
 40
0.8181818181818182
 40
0.8181818181818182
 40
0.8181818181818182
 40
1.0
 40
1.0
 40
1.0
 40
1.0
 10
175.2541
 20
154.3805
 30
0.0
 10
175.2541
 20
154.3805
 30
0.0
 10
164.6743
 20
94.3804
 30
0.0
 10
164.6743
 20
94.3804
 30
0.0
 10
164.6743
 20
94.3804
 30
0.0
 10
164.1751
 20
91.5462
 30
0.0
 10
161.7332
 20
89.4655
 30
0.0
 10
158.8556
 20
89.4224
 30
0.0
 10
158.8556
 20
89.4224
 30
0.0
 10
158.8556
 20
89.4224
 30
0.0
 10
70.029
 20
89.4224
 30
0.0
 10
70.029
 20
89.4224
 30
0.0
 10
70.029
 20
89.4224
 30
0.0
 10
67.1514
 20
89.4655
 30
0.0
 10
64.7098
 20
91.5462
 30
0.0
 10
64.2103
 20
94.3804
 30
0.0
 10
64.2103
 20
94.3804
 30
0.0
 10
64.2103
 20
94.3804
 30
0.0
 10
53.6305
 20
154.3805
 30
0.0
 10
53.6305
 20
154.3805
 30
0.0
 10
53.6305
 20
154.3805
 30
0.0
 10
53.5751
 20
154.6952
 30
0.0
 10
53.5447
 20
155.0137
 30
0.0
 10
53.5402
 20
155.3333
 30
0.0
 10
53.5402
 20
155.3333
 30
0.0
 10
53.4904
 20
158.6466
 30
0.0
 10
56.1362
 20
161.3729
 30
0.0
 10
59.4495
 20
161.4223
 30
0.0
 10
59.4495
 20
161.4223
 30
0.0
 10
59.4495
 20
161.4223
 30
0.0
 10
169.4354
 20
161.4223
 30
0.0
 10
169.4354
 20
161.4223
 30
0.0
 10
169.4354
 20
161.4223
 30
0.0
 10
169.7547
 20
161.4177
 30
0.0
 10
170.0732
 20
161.3874
 30
0.0
 10
170.3879
 20
161.3316
 30
0.0
 10
170.3879
 20
161.3316
 30
0.0
 10
173.6511
 20
160.7559
 30
0.0
 10
175.8299
 20
157.6437
 30
0.0
 10
175.2541
 20
154.3805
 30
0.0
  0
SPLINE
  5
7B
330
1F
100
AcDbEntity
  8
layer 1
 62
     7
100
AcDbSpline
210
0.0
220
0.0
230
1.0
 70
    11
 71
     3
 72
   132
 73
   128
 74
     0
 42
0.000000001
 43
0.0000000001
 40
0.0
 40
0.0
 40
0.0
 40
0.0
 40
0.0303030303030303
 40
0.0303030303030303
 40
0.0303030303030303
 40
0.0303030303030303
 40
0.0606060606060606
 40
0.0606060606060606
 40
0.0606060606060606
 40
0.0606060606060606
 40
0.0909090909090909
 40
0.0909090909090909
 40
0.0909090909090909
 40
0.0909090909090909
 40
0.1212121212121212
 40
0.1212121212121212
 40
0.1212121212121212
 40
0.1212121212121212
 40
0.1515151515151515
 40
0.1515151515151515
 40
0.1515151515151515
 40
0.1515151515151515
 40
0.1818181818181818
 40
0.1818181818181818
 40
0.1818181818181818
 40
0.1818181818181818
 40
0.2121212121212121
 40
0.2121212121212121
 40
0.2121212121212121
 40
0.2121212121212121
 40
0.2424242424242424
 40
0.2424242424242424
 40
0.2424242424242424
 40
0.2424242424242424
 40
0.2727272727272727
 40
0.2727272727272727
 40
0.2727272727272727
 40
0.2727272727272727
 40
0.303030303030303
 40
0.303030303030303
 40
0.303030303030303
 40
0.303030303030303
 40
0.3333333333333333
 40
0.3333333333333333
 40
0.3333333333333333
 40
0.3333333333333333
 40
0.3636363636363636
 40
0.3636363636363636
 40
0.3636363636363636
 40
0.3636363636363636
 40
0.3939393939393939
 40
0.3939393939393939
 40
0.3939393939393939
 40
0.3939393939393939
 40
0.4242424242424243
 40
0.4242424242424243
 40
0.4242424242424243
 40
0.4242424242424243
 40
0.4545454545454545
 40
0.4545454545454545
 40
0.4545454545454545
 40
0.4545454545454545
 40
0.4848484848484849
 40
0.4848484848484849
 40
0.4848484848484849
 40
0.4848484848484849
 40
0.5151515151515151
 40
0.5151515151515151
 40
0.5151515151515151
 40
0.5151515151515151
 40
0.5454545454545454
 40
0.5454545454545454
 40
0.5454545454545454
 40
0.5454545454545454
 40
0.5757575757575758
 40
0.5757575757575758
 40
0.5757575757575758
 40
0.5757575757575758
 40
0.6060606060606061
 40
0.6060606060606061
 40
0.6060606060606061
 40
0.6060606060606061
 40
0.6363636363636364
 40
0.6363636363636364
 40
0.6363636363636364
 40
0.6363636363636364
 40
0.6666666666666666
 40
0.6666666666666666
 40
0.6666666666666666
 40
0.6666666666666666
 40
0.696969696969697
 40
0.696969696969697
 40
0.696969696969697
 40
0.696969696969697
 40
0.7272727272727273
 40
0.7272727272727273
 40
0.7272727272727273
 40
0.7272727272727273
 40
0.7575757575757576
 40
0.7575757575757576
 40
0.7575757575757576
 40
0.7575757575757576
 40
0.7878787878787878
 40
0.7878787878787878
 40
0.7878787878787878
 40
0.7878787878787878
 40
0.8181818181818182
 40
0.8181818181818182
 40
0.8181818181818182
 40
0.8181818181818182
 40
0.8484848484848485
 40
0.8484848484848485
 40
0.8484848484848485
 40
0.8484848484848485
 40
0.8787878787878788
 40
0.8787878787878788
 40
0.8787878787878788
 40
0.8787878787878788
 40
0.9090909090909091
 40
0.9090909090909091
 40
0.9090909090909091
 40
0.9090909090909091
 40
0.9393939393939394
 40
0.9393939393939394
 40
0.9393939393939394
 40
0.9393939393939394
 40
1.0
 40
1.0
 40
1.0
 40
1.0
 10
205.2819
 20
-31.6349
 30
0.0
 10
205.2819
 20
-31.6349
 30
0.0
 10
186.7868
 20
73.255
 30
0.0
 10
186.7868
 20
73.255
 30
0.0
 10
186.7868
 20
73.255
 30
0.0
 10
186.3007
 20
76.012
 30
0.0
 10
186.3007
 20
78.8328
 30
0.0
 10
186.7868
 20
81.5901
 30
0.0
 10
186.7868
 20
81.5901
 30
0.0
 10
186.7868
 20
81.5901
 30
0.0
 10
201.9213
 20
167.4223
 30
0.0
 10
201.9213
 20
167.4223
 30
0.0
 10
201.9213
 20
167.4223
 30
0.0
 10
201.9213
 20
167.4223
 30
0.0
 10
176.9214
 20
167.4223
 30
0.0
 10
176.9214
 20
167.4223
 30
0.0
 10
176.9214
 20
167.4223
 30
0.0
 10
176.9214
 20
167.4223
 30
0.0
 10
176.9214
 20
173.4224
 30
0.0
 10
176.9214
 20
173.4224
 30
0.0
 10
176.9214
 20
173.4224
 30
0.0
 10
176.9214
 20
173.4224
 30
0.0
 10
201.9213
 20
173.4224
 30
0.0
 10
201.9213
 20
173.4224
 30
0.0
 10
201.9213
 20
173.4224
 30
0.0
 10
201.9213
 20
176.736
 30
0.0
 10
199.2353
 20
179.4224
 30
0.0
 10
195.9213
 20
179.4224
 30
0.0
 10
195.9213
 20
179.4224
 30
0.0
 10
195.9213
 20
179.4224
 30
0.0
 10
40.0326
 20
179.4224
 30
0.0
 10
40.0326
 20
179.4224
 30
0.0
 10
40.0326
 20
179.4224
 30
0.0
 10
40.0326
 20
179.4224
 30
0.0
 10
45.2421
 20
149.878
 30
0.0
 10
45.2421
 20
149.878
 30
0.0
 10
45.2421
 20
149.878
 30
0.0
 10
45.2421
 20
149.878
 30
0.0
 10
39.3331
 20
148.8362
 30
0.0
 10
39.3331
 20
148.8362
 30
0.0
 10
39.3331
 20
148.8362
 30
0.0
 10
39.3331
 20
148.8362
 30
0.0
 10
34.1236
 20
178.3803
 30
0.0
 10
34.1236
 20
178.3803
 30
0.0
 10
34.1236
 20
178.3803
 30
0.0
 10
34.1236
 20
178.3803
 30
0.0
 10
31.2143
 20
177.8674
 30
0.0
 10
31.2143
 20
177.8674
 30
0.0
 10
31.2143
 20
177.8674
 30
0.0
 10
27.9507
 20
177.292
 30
0.0
 10
25.7716
 20
174.1801
 30
0.0
 10
26.3473
 20
170.9166
 30
0.0
 10
26.3473
 20
170.9166
 30
0.0
 10
26.3473
 20
170.9166
 30
0.0
 10
42.0978
 20
81.5901
 30
0.0
 10
42.0978
 20
81.5901
 30
0.0
 10
42.0978
 20
81.5901
 30
0.0
 10
42.1662
 20
81.2024
 30
0.0
 10
42.2252
 20
80.8129
 30
0.0
 10
42.2742
 20
80.4224
 30
0.0
 10
42.2742
 20
80.4224
 30
0.0
 10
42.2742
 20
80.4224
 30
0.0
 10
114.2758
 20
80.4224
 30
0.0
 10
114.2758
 20
80.4224
 30
0.0
 10
114.2758
 20
80.4224
 30
0.0
 10
114.2758
 20
80.4224
 30
0.0
 10
114.2758
 20
74.4223
 30
0.0
 10
114.2758
 20
74.4223
 30
0.0
 10
114.2758
 20
74.4223
 30
0.0
 10
114.2758
 20
74.4223
 30
0.0
 10
42.2742
 20
74.4223
 30
0.0
 10
42.2742
 20
74.4223
 30
0.0
 10
42.2742
 20
74.4223
 30
0.0
 10
42.2252
 20
74.0318
 30
0.0
 10
42.1662
 20
73.6423
 30
0.0
 10
42.0978
 20
73.255
 30
0.0
 10
42.0978
 20
73.255
 30
0.0
 10
42.0978
 20
73.255
 30
0.0
 10
24.6448
 20
-25.7263
 30
0.0
 10
24.6448
 20
-25.7263
 30
0.0
 10
24.6448
 20
-25.7263
 30
0.0
 10
24.6448
 20
-25.7263
 30
0.0
 10
36.4177
 20
-27.8021
 30
0.0
 10
36.4177
 20
-27.8021
 30
0.0
 10
36.4177
 20
-27.8021
 30
0.0
 10
36.4177
 20
-27.8021
 30
0.0
 10
35.3756
 20
-33.711
 30
0.0
 10
35.3756
 20
-33.711
 30
0.0
 10
35.3756
 20
-33.711
 30
0.0
 10
35.3756
 20
-33.711
 30
0.0
 10
23.6031
 20
-31.6349
 30
0.0
 10
23.6031
 20
-31.6349
 30
0.0
 10
23.6031
 20
-31.6349
 30
0.0
 10
22.4566
 20
-38.1617
 30
0.0
 10
26.8183
 20
-44.3822
 30
0.0
 10
33.345
 20
-45.5287
 30
0.0
 10
33.345
 20
-45.5287
 30
0.0
 10
39.8718
 20
-46.6752
 30
0.0
 10
46.092
 20
-42.3135
 30
0.0
 10
47.2385
 20
-35.7868
 30
0.0
 10
47.2385
 20
-35.7868
 30
0.0
 10
47.2385
 20
-35.7868
 30
0.0
 10
64.2103
 20
60.4643
 30
0.0
 10
64.2103
 20
60.4643
 30
0.0
 10
64.2103
 20
60.4643
 30
0.0
 10
64.7098
 20
63.2985
 30
0.0
 10
67.1514
 20
65.3792
 30
0.0
 10
70.029
 20
65.4223
 30
0.0
 10
70.029
 20
65.4223
 30
0.0
 10
70.029
 20
65.4223
 30
0.0
 10
158.8556
 20
65.4223
 30
0.0
 10
158.8556
 20
65.4223
 30
0.0
 10
158.8556
 20
65.4223
 30
0.0
 10
161.7332
 20
65.3792
 30
0.0
 10
164.1751
 20
63.2985
 30
0.0
 10
164.6743
 20
60.4643
 30
0.0
 10
164.6743
 20
60.4643
 30
0.0
 10
164.6743
 20
60.4643
 30
0.0
 10
181.6461
 20
-35.7868
 30
0.0
 10
181.6461
 20
-35.7868
 30
0.0
 10
181.6461
 20
-35.7868
 30
0.0
 10
182.7926
 20
-42.3135
 30
0.0
 10
189.0132
 20
-46.6752
 30
0.0
 10
195.5399
 20
-45.5287
 30
0.0
 10
195.5399
 20
-45.5287
 30
0.0
 10
202.0667
 20
-44.3822
 30
0.0
 10
206.4284
 20
-38.1617
 30
0.0
 10
205.2819
 20
-31.6349
 30
0.0
  0
SPLINE
  5
7C
330
1F
100
AcDbEntity
  8
layer 1
370
    35
100
AcDbSpline
210
0.0
220
0.0
230
1.0
 70
    11
 71
     3
 72
    44
 73
    40
 74
     0
 42
0.000000001
 43
0.0000000001
 40
0.0
 40
0.0
 40
0.0
 40
0.0
 40
0.0909090909090909
 40
0.0909090909090909
 40
0.0909090909090909
 40
0.0909090909090909
 40
0.1818181818181818
 40
0.1818181818181818
 40
0.1818181818181818
 40
0.1818181818181818
 40
0.2727272727272727
 40
0.2727272727272727
 40
0.2727272727272727
 40
0.2727272727272727
 40
0.3636363636363636
 40
0.3636363636363636
 40
0.3636363636363636
 40
0.3636363636363636
 40
0.4545454545454545
 40
0.4545454545454545
 40
0.4545454545454545
 40
0.4545454545454545
 40
0.5454545454545454
 40
0.5454545454545454
 40
0.5454545454545454
 40
0.5454545454545454
 40
0.6363636363636364
 40
0.6363636363636364
 40
0.6363636363636364
 40
0.6363636363636364
 40
0.7272727272727273
 40
0.7272727272727273
 40
0.7272727272727273
 40
0.7272727272727273
 40
0.8181818181818182
 40
0.8181818181818182
 40
0.8181818181818182
 40
0.8181818181818182
 40
1.0
 40
1.0
 40
1.0
 40
1.0
 10
175.2541
 20
154.3805
 30
0.0
 10
175.2541
 20
154.3805
 30
0.0
 10
164.6743
 20
94.3804
 30
0.0
 10
164.6743
 20
94.3804
 30
0.0
 10
164.6743
 20
94.3804
 30
0.0
 10
164.1751
 20
91.5462
 30
0.0
 10
161.7332
 20
89.4655
 30
0.0
 10
158.8556
 20
89.4224
 30
0.0
 10
158.8556
 20
89.4224
 30
0.0
 10
158.8556
 20
89.4224
 30
0.0
 10
70.029
 20
89.4224
 30
0.0
 10
70.029
 20
89.4224
 30
0.0
 10
70.029
 20
89.4224
 30
0.0
 10
67.1514
 20
89.4655
 30
0.0
 10
64.7098
 20
91.5462
 30
0.0
 10
64.2103
 20
94.3804
 30
0.0
 10
64.2103
 20
94.3804
 30
0.0
 10
64.2103
 20
94.3804
 30
0.0
 10
53.6305
 20
154.3805
 30
0.0
 10
53.6305
 20
154.3805
 30
0.0
 10
53.6305
 20
154.3805
 30
0.0
 10
53.5751
 20
154.6952
 30
0.0
 10
53.5447
 20
155.0137
 30
0.0
 10
53.5402
 20
155.3333
 30
0.0
 10
53.5402
 20
155.3333
 30
0.0
 10
53.4904
 20
158.6466
 30
0.0
 10
56.1362
 20
161.3729
 30
0.0
 10
59.4495
 20
161.4223
 30
0.0
 10
59.4495
 20
161.4223
 30
0.0
 10
59.4495
 20
161.4223
 30
0.0
 10
169.4354
 20
161.4223
 30
0.0
 10
169.4354
 20
161.4223
 30
0.0
 10
169.4354
 20
161.4223
 30
0.0
 10
169.7547
 20
161.4177
 30
0.0
 10
170.0732
 20
161.3874
 30
0.0
 10
170.3879
 20
161.3316
 30
0.0
 10
170.3879
 20
161.3316
 30
0.0
 10
173.6511
 20
160.7559
 30
0.0
 10
175.8299
 20
157.6437
 30
0.0
 10
175.2541
 20
154.3805
 30
0.0
  0
SPLINE
  5
7D
330
1F
100
AcDbEntity
  8
layer 1
370
    35
100
AcDbSpline
210
0.0
220
0.0
230
1.0
 70
    11
 71
     3
 72
   132
 73
   128
 74
     0
 42
0.000000001
 43
0.0000000001
 40
0.0
 40
0.0
 40
0.0
 40
0.0
 40
0.0303030303030303
 40
0.0303030303030303
 40
0.0303030303030303
 40
0.0303030303030303
 40
0.0606060606060606
 40
0.0606060606060606
 40
0.0606060606060606
 40
0.0606060606060606
 40
0.0909090909090909
 40
0.0909090909090909
 40
0.0909090909090909
 40
0.0909090909090909
 40
0.1212121212121212
 40
0.1212121212121212
 40
0.1212121212121212
 40
0.1212121212121212
 40
0.1515151515151515
 40
0.1515151515151515
 40
0.1515151515151515
 40
0.1515151515151515
 40
0.1818181818181818
 40
0.1818181818181818
 40
0.1818181818181818
 40
0.1818181818181818
 40
0.2121212121212121
 40
0.2121212121212121
 40
0.2121212121212121
 40
0.2121212121212121
 40
0.2424242424242424
 40
0.2424242424242424
 40
0.2424242424242424
 40
0.2424242424242424
 40
0.2727272727272727
 40
0.2727272727272727
 40
0.2727272727272727
 40
0.2727272727272727
 40
0.303030303030303
 40
0.303030303030303
 40
0.303030303030303
 40
0.303030303030303
 40
0.3333333333333333
 40
0.3333333333333333
 40
0.3333333333333333
 40
0.3333333333333333
 40
0.3636363636363636
 40
0.3636363636363636
 40
0.3636363636363636
 40
0.3636363636363636
 40
0.3939393939393939
 40
0.3939393939393939
 40
0.3939393939393939
 40
0.3939393939393939
 40
0.4242424242424243
 40
0.4242424242424243
 40
0.4242424242424243
 40
0.4242424242424243
 40
0.4545454545454545
 40
0.4545454545454545
 40
0.4545454545454545
 40
0.4545454545454545
 40
0.4848484848484849
 40
0.4848484848484849
 40
0.4848484848484849
 40
0.4848484848484849
 40
0.5151515151515151
 40
0.5151515151515151
 40
0.5151515151515151
 40
0.5151515151515151
 40
0.5454545454545454
 40
0.5454545454545454
 40
0.5454545454545454
 40
0.5454545454545454
 40
0.5757575757575758
 40
0.5757575757575758
 40
0.5757575757575758
 40
0.5757575757575758
 40
0.6060606060606061
 40
0.6060606060606061
 40
0.6060606060606061
 40
0.6060606060606061
 40
0.6363636363636364
 40
0.6363636363636364
 40
0.6363636363636364
 40
0.6363636363636364
 40
0.6666666666666666
 40
0.6666666666666666
 40
0.6666666666666666
 40
0.6666666666666666
 40
0.696969696969697
 40
0.696969696969697
 40
0.696969696969697
 40
0.696969696969697
 40
0.7272727272727273
 40
0.7272727272727273
 40
0.7272727272727273
 40
0.7272727272727273
 40
0.7575757575757576
 40
0.7575757575757576
 40
0.7575757575757576
 40
0.7575757575757576
 40
0.7878787878787878
 40
0.7878787878787878
 40
0.7878787878787878
 40
0.7878787878787878
 40
0.8181818181818182
 40
0.8181818181818182
 40
0.8181818181818182
 40
0.8181818181818182
 40
0.8484848484848485
 40
0.8484848484848485
 40
0.8484848484848485
 40
0.8484848484848485
 40
0.8787878787878788
 40
0.8787878787878788
 40
0.8787878787878788
 40
0.8787878787878788
 40
0.9090909090909091
 40
0.9090909090909091
 40
0.9090909090909091
 40
0.9090909090909091
 40
0.9393939393939394
 40
0.9393939393939394
 40
0.9393939393939394
 40
0.9393939393939394
 40
1.0
 40
1.0
 40
1.0
 40
1.0
 10
205.2819
 20
-31.6349
 30
0.0
 10
205.2819
 20
-31.6349
 30
0.0
 10
186.7868
 20
73.255
 30
0.0
 10
186.7868
 20
73.255
 30
0.0
 10
186.7868
 20
73.255
 30
0.0
 10
186.3007
 20
76.012
 30
0.0
 10
186.3007
 20
78.8328
 30
0.0
 10
186.7868
 20
81.5901
 30
0.0
 10
186.7868
 20
81.5901
 30
0.0
 10
186.7868
 20
81.5901
 30
0.0
 10
201.9213
 20
167.4223
 30
0.0
 10
201.9213
 20
167.4223
 30
0.0
 10
201.9213
 20
167.4223
 30
0.0
 10
201.9213
 20
167.4223
 30
0.0
 10
176.9214
 20
167.4223
 30
0.0
 10
176.9214
 20
167.4223
 30
0.0
 10
176.9214
 20
167.4223
 30
0.0
 10
176.9214
 20
167.4223
 30
0.0
 10
176.9214
 20
173.4224
 30
0.0
 10
176.9214
 20
173.4224
 30
0.0
 10
176.9214
 20
173.4224
 30
0.0
 10
176.9214
 20
173.4224
 30
0.0
 10
201.9213
 20
173.4224
 30
0.0
 10
201.9213
 20
173.4224
 30
0.0
 10
201.9213
 20
173.4224
 30
0.0
 10
201.9213
 20
176.736
 30
0.0
 10
199.2353
 20
179.4224
 30
0.0
 10
195.9213
 20
179.4224
 30
0.0
 10
195.9213
 20
179.4224
 30
0.0
 10
195.9213
 20
179.4224
 30
0.0
 10
40.0326
 20
179.4224
 30
0.0
 10
40.0326
 20
179.4224
 30
0.0
 10
40.0326
 20
179.4224
 30
0.0
 10
40.0326
 20
179.4224
 30
0.0
 10
45.2421
 20
149.878
 30
0.0
 10
45.2421
 20
149.878
 30
0.0
 10
45.2421
 20
149.878
 30
0.0
 10
45.2421
 20
149.878
 30
0.0
 10
39.3331
 20
148.8362
 30
0.0
 10
39.3331
 20
148.8362
 30
0.0
 10
39.3331
 20
148.8362
 30
0.0
 10
39.3331
 20
148.8362
 30
0.0
 10
34.1236
 20
178.3803
 30
0.0
 10
34.1236
 20
178.3803
 30
0.0
 10
34.1236
 20
178.3803
 30
0.0
 10
34.1236
 20
178.3803
 30
0.0
 10
31.2143
 20
177.8674
 30
0.0
 10
31.2143
 20
177.8674
 30
0.0
 10
31.2143
 20
177.8674
 30
0.0
 10
27.9507
 20
177.292
 30
0.0
 10
25.7716
 20
174.1801
 30
0.0
 10
26.3473
 20
170.9166
 30
0.0
 10
26.3473
 20
170.9166
 30
0.0
 10
26.3473
 20
170.9166
 30
0.0
 10
42.0978
 20
81.5901
 30
0.0
 10
42.0978
 20
81.5901
 30
0.0
 10
42.0978
 20
81.5901
 30
0.0
 10
42.1662
 20
81.2024
 30
0.0
 10
42.2252
 20
80.8129
 30
0.0
 10
42.2742
 20
80.4224
 30
0.0
 10
42.2742
 20
80.4224
 30
0.0
 10
42.2742
 20
80.4224
 30
0.0
 10
114.2758
 20
80.4224
 30
0.0
 10
114.2758
 20
80.4224
 30
0.0
 10
114.2758
 20
80.4224
 30
0.0
 10
114.2758
 20
80.4224
 30
0.0
 10
114.2758
 20
74.4223
 30
0.0
 10
114.2758
 20
74.4223
 30
0.0
 10
114.2758
 20
74.4223
 30
0.0
 10
114.2758
 20
74.4223
 30
0.0
 10
42.2742
 20
74.4223
 30
0.0
 10
42.2742
 20
74.4223
 30
0.0
 10
42.2742
 20
74.4223
 30
0.0
 10
42.2252
 20
74.0318
 30
0.0
 10
42.1662
 20
73.6423
 30
0.0
 10
42.0978
 20
73.255
 30
0.0
 10
42.0978
 20
73.255
 30
0.0
 10
42.0978
 20
73.255
 30
0.0
 10
24.6448
 20
-25.7263
 30
0.0
 10
24.6448
 20
-25.7263
 30
0.0
 10
24.6448
 20
-25.7263
 30
0.0
 10
24.6448
 20
-25.7263
 30
0.0
 10
36.4177
 20
-27.8021
 30
0.0
 10
36.4177
 20
-27.8021
 30
0.0
 10
36.4177
 20
-27.8021
 30
0.0
 10
36.4177
 20
-27.8021
 30
0.0
 10
35.3756
 20
-33.711
 30
0.0
 10
35.3756
 20
-33.711
 30
0.0
 10
35.3756
 20
-33.711
 30
0.0
 10
35.3756
 20
-33.711
 30
0.0
 10
23.6031
 20
-31.6349
 30
0.0
 10
23.6031
 20
-31.6349
 30
0.0
 10
23.6031
 20
-31.6349
 30
0.0
 10
22.4566
 20
-38.1617
 30
0.0
 10
26.8183
 20
-44.3822
 30
0.0
 10
33.345
 20
-45.5287
 30
0.0
 10
33.345
 20
-45.5287
 30
0.0
 10
39.8718
 20
-46.6752
 30
0.0
 10
46.092
 20
-42.3135
 30
0.0
 10
47.2385
 20
-35.7868
 30
0.0
 10
47.2385
 20
-35.7868
 30
0.0
 10
47.2385
 20
-35.7868
 30
0.0
 10
64.2103
 20
60.4643
 30
0.0
 10
64.2103
 20
60.4643
 30
0.0
 10
64.2103
 20
60.4643
 30
0.0
 10
64.7098
 20
63.2985
 30
0.0
 10
67.1514
 20
65.3792
 30
0.0
 10
70.029
 20
65.4223
 30
0.0
 10
70.029
 20
65.4223
 30
0.0
 10
70.029
 20
65.4223
 30
0.0
 10
158.8556
 20
65.4223
 30
0.0
 10
158.8556
 20
65.4223
 30
0.0
 10
158.8556
 20
65.4223
 30
0.0
 10
161.7332
 20
65.3792
 30
0.0
 10
164.1751
 20
63.2985
 30
0.0
 10
164.6743
 20
60.4643
 30
0.0
 10
164.6743
 20
60.4643
 30
0.0
 10
164.6743
 20
60.4643
 30
0.0
 10
181.6461
 20
-35.7868
 30
0.0
 10
181.6461
 20
-35.7868
 30
0.0
 10
181.6461
 20
-35.7868
 30
0.0
 10
182.7926
 20
-42.3135
 30
0.0
 10
189.0132
 20
-46.6752
 30
0.0
 10
195.5399
 20
-45.5287
 30
0.0
 10
195.5399
 20
-45.5287
 30
0.0
 10
202.0667
 20
-44.3822
 30
0.0
 10
206.4284
 20
-38.1617
 30
0.0
 10
205.2819
 20
-31.6349
 30
0.0
  0
SPLINE
  5
7E
330
1F
100
AcDbEntity
  8
layer 1
 62
     7
100
AcDbSpline
210
0.0
220
0.0
230
1.0
 70
    11
 71
     3
 72
    44
 73
    40
 74
     0
 42
0.000000001
 43
0.0000000001
 40
0.0
 40
0.0
 40
0.0
 40
0.0
 40
0.0909090909090909
 40
0.0909090909090909
 40
0.0909090909090909
 40
0.0909090909090909
 40
0.1818181818181818
 40
0.1818181818181818
 40
0.1818181818181818
 40
0.1818181818181818
 40
0.2727272727272727
 40
0.2727272727272727
 40
0.2727272727272727
 40
0.2727272727272727
 40
0.3636363636363636
 40
0.3636363636363636
 40
0.3636363636363636
 40
0.3636363636363636
 40
0.4545454545454545
 40
0.4545454545454545
 40
0.4545454545454545
 40
0.4545454545454545
 40
0.5454545454545454
 40
0.5454545454545454
 40
0.5454545454545454
 40
0.5454545454545454
 40
0.6363636363636364
 40
0.6363636363636364
 40
0.6363636363636364
 40
0.6363636363636364
 40
0.7272727272727273
 40
0.7272727272727273
 40
0.7272727272727273
 40
0.7272727272727273
 40
0.8181818181818182
 40
0.8181818181818182
 40
0.8181818181818182
 40
0.8181818181818182
 40
1.0
 40
1.0
 40
1.0
 40
1.0
 10
128.658
 20
-145.3841
 30
0.0
 10
128.658
 20
-145.3841
 30
0.0
 10
139.2379
 20
-85.384
 30
0.0
 10
139.2379
 20
-85.384
 30
0.0
 10
139.2379
 20
-85.384
 30
0.0
 10
139.737
 20
-82.5498
 30
0.0
 10
142.179
 20
-80.4691
 30
0.0
 10
145.0566
 20
-80.4261
 30
0.0
 10
145.0566
 20
-80.4261
 30
0.0
 10
145.0566
 20
-80.4261
 30
0.0
 10
233.8832
 20
-80.4261
 30
0.0
 10
233.8832
 20
-80.4261
 30
0.0
 10
233.8832
 20
-80.4261
 30
0.0
 10
236.7608
 20
-80.4691
 30
0.0
 10
239.2024
 20
-82.5498
 30
0.0
 10
239.7019
 20
-85.384
 30
0.0
 10
239.7019
 20
-85.384
 30
0.0
 10
239.7019
 20
-85.384
 30
0.0
 10
250.2817
 20
-145.3841
 30
0.0
 10
250.2817
 20
-145.3841
 30
0.0
 10
250.2817
 20
-145.3841
 30
0.0
 10
250.3371
 20
-145.6988
 30
0.0
 10
250.3674
 20
-146.0173
 30
0.0
 10
250.372
 20
-146.3369
 30
0.0
 10
250.372
 20
-146.3369
 30
0.0
 10
250.4218
 20
-149.6502
 30
0.0
 10
247.7759
 20
-152.3765
 30
0.0
 10
244.4626
 20
-152.4259
 30
0.0
 10
244.4626
 20
-152.4259
 30
0.0
 10
244.4626
 20
-152.4259
 30
0.0
 10
134.4768
 20
-152.4259
 30
0.0
 10
134.4768
 20
-152.4259
 30
0.0
 10
134.4768
 20
-152.4259
 30
0.0
 10
134.1575
 20
-152.4213
 30
0.0
 10
133.8389
 20
-152.391
 30
0.0
 10
133.5243
 20
-152.3352
 30
0.0
 10
133.5243
 20
-152.3352
 30
0.0
 10
130.2611
 20
-151.7595
 30
0.0
 10
128.0823
 20
-148.6473
 30
0.0
 10
128.658
 20
-145.3841
 30
0.0
  0
SPLINE
  5
7F
330
1F
100
AcDbEntity
  8
layer 1
 62
     7
100
AcDbSpline
210
0.0
220
0.0
230
1.0
 70
    11
 71
     3
 72
   132
 73
   128
 74
     0
 42
0.000000001
 43
0.0000000001
 40
0.0
 40
0.0
 40
0.0
 40
0.0
 40
0.0303030303030303
 40
0.0303030303030303
 40
0.0303030303030303
 40
0.0303030303030303
 40
0.0606060606060606
 40
0.0606060606060606
 40
0.0606060606060606
 40
0.0606060606060606
 40
0.0909090909090909
 40
0.0909090909090909
 40
0.0909090909090909
 40
0.0909090909090909
 40
0.1212121212121212
 40
0.1212121212121212
 40
0.1212121212121212
 40
0.1212121212121212
 40
0.1515151515151515
 40
0.1515151515151515
 40
0.1515151515151515
 40
0.1515151515151515
 40
0.1818181818181818
 40
0.1818181818181818
 40
0.1818181818181818
 40
0.1818181818181818
 40
0.2121212121212121
 40
0.2121212121212121
 40
0.2121212121212121
 40
0.2121212121212121
 40
0.2424242424242424
 40
0.2424242424242424
 40
0.2424242424242424
 40
0.2424242424242424
 40
0.2727272727272727
 40
0.2727272727272727
 40
0.2727272727272727
 40
0.2727272727272727
 40
0.303030303030303
 40
0.303030303030303
 40
0.303030303030303
 40
0.303030303030303
 40
0.3333333333333333
 40
0.3333333333333333
 40
0.3333333333333333
 40
0.3333333333333333
 40
0.3636363636363636
 40
0.3636363636363636
 40
0.3636363636363636
 40
0.3636363636363636
 40
0.3939393939393939
 40
0.3939393939393939
 40
0.3939393939393939
 40
0.3939393939393939
 40
0.4242424242424243
 40
0.4242424242424243
 40
0.4242424242424243
 40
0.4242424242424243
 40
0.4545454545454545
 40
0.4545454545454545
 40
0.4545454545454545
 40
0.4545454545454545
 40
0.4848484848484849
 40
0.4848484848484849
 40
0.4848484848484849
 40
0.4848484848484849
 40
0.5151515151515151
 40
0.5151515151515151
 40
0.5151515151515151
 40
0.5151515151515151
 40
0.5454545454545454
 40
0.5454545454545454
 40
0.5454545454545454
 40
0.5454545454545454
 40
0.5757575757575758
 40
0.5757575757575758
 40
0.5757575757575758
 40
0.5757575757575758
 40
0.6060606060606061
 40
0.6060606060606061
 40
0.6060606060606061
 40
0.6060606060606061
 40
0.6363636363636364
 40
0.6363636363636364
 40
0.6363636363636364
 40
0.6363636363636364
 40
0.6666666666666666
 40
0.6666666666666666
 40
0.6666666666666666
 40
0.6666666666666666
 40
0.696969696969697
 40
0.696969696969697
 40
0.696969696969697
 40
0.696969696969697
 40
0.7272727272727273
 40
0.7272727272727273
 40
0.7272727272727273
 40
0.7272727272727273
 40
0.7575757575757576
 40
0.7575757575757576
 40
0.7575757575757576
 40
0.7575757575757576
 40
0.7878787878787878
 40
0.7878787878787878
 40
0.7878787878787878
 40
0.7878787878787878
 40
0.8181818181818182
 40
0.8181818181818182
 40
0.8181818181818182
 40
0.8181818181818182
 40
0.8484848484848485
 40
0.8484848484848485
 40
0.8484848484848485
 40
0.8484848484848485
 40
0.8787878787878788
 40
0.8787878787878788
 40
0.8787878787878788
 40
0.8787878787878788
 40
0.9090909090909091
 40
0.9090909090909091
 40
0.9090909090909091
 40
0.9090909090909091
 40
0.9393939393939394
 40
0.9393939393939394
 40
0.9393939393939394
 40
0.9393939393939394
 40
1.0
 40
1.0
 40
1.0
 40
1.0
 10
98.6303
 20
40.6313
 30
0.0
 10
98.6303
 20
40.6313
 30
0.0
 10
117.1254
 20
-64.2586
 30
0.0
 10
117.1254
 20
-64.2586
 30
0.0
 10
117.1254
 20
-64.2586
 30
0.0
 10
117.6115
 20
-67.0156
 30
0.0
 10
117.6115
 20
-69.8364
 30
0.0
 10
117.1254
 20
-72.5937
 30
0.0
 10
117.1254
 20
-72.5937
 30
0.0
 10
117.1254
 20
-72.5937
 30
0.0
 10
101.9909
 20
-158.4259
 30
0.0
 10
101.9909
 20
-158.4259
 30
0.0
 10
101.9909
 20
-158.4259
 30
0.0
 10
101.9909
 20
-158.4259
 30
0.0
 10
126.9908
 20
-158.4259
 30
0.0
 10
126.9908
 20
-158.4259
 30
0.0
 10
126.9908
 20
-158.4259
 30
0.0
 10
126.9908
 20
-158.4259
 30
0.0
 10
126.9908
 20
-164.426
 30
0.0
 10
126.9908
 20
-164.426
 30
0.0
 10
126.9908
 20
-164.426
 30
0.0
 10
126.9908
 20
-164.426
 30
0.0
 10
101.9909
 20
-164.426
 30
0.0
 10
101.9909
 20
-164.426
 30
0.0
 10
101.9909
 20
-164.426
 30
0.0
 10
101.9909
 20
-167.7396
 30
0.0
 10
104.6769
 20
-170.426
 30
0.0
 10
107.9909
 20
-170.426
 30
0.0
 10
107.9909
 20
-170.426
 30
0.0
 10
107.9909
 20
-170.426
 30
0.0
 10
263.8795
 20
-170.426
 30
0.0
 10
263.8795
 20
-170.426
 30
0.0
 10
263.8795
 20
-170.426
 30
0.0
 10
263.8795
 20
-170.426
 30
0.0
 10
258.6701
 20
-140.8816
 30
0.0
 10
258.6701
 20
-140.8816
 30
0.0
 10
258.6701
 20
-140.8816
 30
0.0
 10
258.6701
 20
-140.8816
 30
0.0
 10
264.5791
 20
-139.8398
 30
0.0
 10
264.5791
 20
-139.8398
 30
0.0
 10
264.5791
 20
-139.8398
 30
0.0
 10
264.5791
 20
-139.8398
 30
0.0
 10
269.7886
 20
-169.3843
 30
0.0
 10
269.7886
 20
-169.3843
 30
0.0
 10
269.7886
 20
-169.3843
 30
0.0
 10
269.7886
 20
-169.3843
 30
0.0
 10
272.6979
 20
-168.871
 30
0.0
 10
272.6979
 20
-168.871
 30
0.0
 10
272.6979
 20
-168.871
 30
0.0
 10
275.9615
 20
-168.2956
 30
0.0
 10
278.1402
 20
-165.1837
 30
0.0
 10
277.5648
 20
-161.9202
 30
0.0
 10
277.5648
 20
-161.9202
 30
0.0
 10
277.5648
 20
-161.9202
 30
0.0
 10
261.8144
 20
-72.5937
 30
0.0
 10
261.8144
 20
-72.5937
 30
0.0
 10
261.8144
 20
-72.5937
 30
0.0
 10
261.7459
 20
-72.206
 30
0.0
 10
261.687
 20
-71.8165
 30
0.0
 10
261.638
 20
-71.426
 30
0.0
 10
261.638
 20
-71.426
 30
0.0
 10
261.638
 20
-71.426
 30
0.0
 10
189.6364
 20
-71.426
 30
0.0
 10
189.6364
 20
-71.426
 30
0.0
 10
189.6364
 20
-71.426
 30
0.0
 10
189.6364
 20
-71.426
 30
0.0
 10
189.6364
 20
-65.4259
 30
0.0
 10
189.6364
 20
-65.4259
 30
0.0
 10
189.6364
 20
-65.4259
 30
0.0
 10
189.6364
 20
-65.4259
 30
0.0
 10
261.638
 20
-65.4259
 30
0.0
 10
261.638
 20
-65.4259
 30
0.0
 10
261.638
 20
-65.4259
 30
0.0
 10
261.687
 20
-65.0354
 30
0.0
 10
261.7459
 20
-64.6459
 30
0.0
 10
261.8144
 20
-64.2586
 30
0.0
 10
261.8144
 20
-64.2586
 30
0.0
 10
261.8144
 20
-64.2586
 30
0.0
 10
279.2673
 20
34.7226
 30
0.0
 10
279.2673
 20
34.7226
 30
0.0
 10
279.2673
 20
34.7226
 30
0.0
 10
279.2673
 20
34.7226
 30
0.0
 10
267.4944
 20
36.7984
 30
0.0
 10
267.4944
 20
36.7984
 30
0.0
 10
267.4944
 20
36.7984
 30
0.0
 10
267.4944
 20
36.7984
 30
0.0
 10
268.5362
 20
42.7074
 30
0.0
 10
268.5362
 20
42.7074
 30
0.0
 10
268.5362
 20
42.7074
 30
0.0
 10
268.5362
 20
42.7074
 30
0.0
 10
280.3091
 20
40.6313
 30
0.0
 10
280.3091
 20
40.6313
 30
0.0
 10
280.3091
 20
40.6313
 30
0.0
 10
281.4556
 20
47.158
 30
0.0
 10
277.0939
 20
53.3786
 30
0.0
 10
270.5671
 20
54.5251
 30
0.0
 10
270.5671
 20
54.5251
 30
0.0
 10
264.0404
 20
55.6716
 30
0.0
 10
257.8202
 20
51.3099
 30
0.0
 10
256.6737
 20
44.7831
 30
0.0
 10
256.6737
 20
44.7831
 30
0.0
 10
256.6737
 20
44.7831
 30
0.0
 10
239.7019
 20
-51.4679
 30
0.0
 10
239.7019
 20
-51.4679
 30
0.0
 10
239.7019
 20
-51.4679
 30
0.0
 10
239.2024
 20
-54.3022
 30
0.0
 10
236.7608
 20
-56.3828
 30
0.0
 10
233.8832
 20
-56.4259
 30
0.0
 10
233.8832
 20
-56.4259
 30
0.0
 10
233.8832
 20
-56.4259
 30
0.0
 10
145.0566
 20
-56.4259
 30
0.0
 10
145.0566
 20
-56.4259
 30
0.0
 10
145.0566
 20
-56.4259
 30
0.0
 10
142.179
 20
-56.3828
 30
0.0
 10
139.737
 20
-54.3022
 30
0.0
 10
139.2379
 20
-51.4679
 30
0.0
 10
139.2379
 20
-51.4679
 30
0.0
 10
139.2379
 20
-51.4679
 30
0.0
 10
122.2661
 20
44.7831
 30
0.0
 10
122.2661
 20
44.7831
 30
0.0
 10
122.2661
 20
44.7831
 30
0.0
 10
121.1195
 20
51.3099
 30
0.0
 10
114.899
 20
55.6716
 30
0.0
 10
108.3723
 20
54.5251
 30
0.0
 10
108.3723
 20
54.5251
 30
0.0
 10
101.8455
 20
53.3786
 30
0.0
 10
97.4838
 20
47.158
 30
0.0
 10
98.6303
 20
40.6313
 30
0.0
  0
SPLINE
  5
80
330
1F
100
AcDbEntity
  8
layer 1
370
    35
100
AcDbSpline
210
0.0
220
0.0
230
1.0
 70
    11
 71
     3
 72
    44
 73
    40
 74
     0
 42
0.000000001
 43
0.0000000001
 40
0.0
 40
0.0
 40
0.0
 40
0.0
 40
0.0909090909090909
 40
0.0909090909090909
 40
0.0909090909090909
 40
0.0909090909090909
 40
0.1818181818181818
 40
0.1818181818181818
 40
0.1818181818181818
 40
0.1818181818181818
 40
0.2727272727272727
 40
0.2727272727272727
 40
0.2727272727272727
 40
0.2727272727272727
 40
0.3636363636363636
 40
0.3636363636363636
 40
0.3636363636363636
 40
0.3636363636363636
 40
0.4545454545454545
 40
0.4545454545454545
 40
0.4545454545454545
 40
0.4545454545454545
 40
0.5454545454545454
 40
0.5454545454545454
 40
0.5454545454545454
 40
0.5454545454545454
 40
0.6363636363636364
 40
0.6363636363636364
 40
0.6363636363636364
 40
0.6363636363636364
 40
0.7272727272727273
 40
0.7272727272727273
 40
0.7272727272727273
 40
0.7272727272727273
 40
0.8181818181818182
 40
0.8181818181818182
 40
0.8181818181818182
 40
0.8181818181818182
 40
1.0
 40
1.0
 40
1.0
 40
1.0
 10
128.658
 20
-145.3841
 30
0.0
 10
128.658
 20
-145.3841
 30
0.0
 10
139.2379
 20
-85.384
 30
0.0
 10
139.2379
 20
-85.384
 30
0.0
 10
139.2379
 20
-85.384
 30
0.0
 10
139.737
 20
-82.5498
 30
0.0
 10
142.179
 20
-80.4691
 30
0.0
 10
145.0566
 20
-80.4261
 30
0.0
 10
145.0566
 20
-80.4261
 30
0.0
 10
145.0566
 20
-80.4261
 30
0.0
 10
233.8832
 20
-80.4261
 30
0.0
 10
233.8832
 20
-80.4261
 30
0.0
 10
233.8832
 20
-80.4261
 30
0.0
 10
236.7608
 20
-80.4691
 30
0.0
 10
239.2024
 20
-82.5498
 30
0.0
 10
239.7019
 20
-85.384
 30
0.0
 10
239.7019
 20
-85.384
 30
0.0
 10
239.7019
 20
-85.384
 30
0.0
 10
250.2817
 20
-145.3841
 30
0.0
 10
250.2817
 20
-145.3841
 30
0.0
 10
250.2817
 20
-145.3841
 30
0.0
 10
250.3371
 20
-145.6988
 30
0.0
 10
250.3674
 20
-146.0173
 30
0.0
 10
250.372
 20
-146.3369
 30
0.0
 10
250.372
 20
-146.3369
 30
0.0
 10
250.4218
 20
-149.6502
 30
0.0
 10
247.7759
 20
-152.3765
 30
0.0
 10
244.4626
 20
-152.4259
 30
0.0
 10
244.4626
 20
-152.4259
 30
0.0
 10
244.4626
 20
-152.4259
 30
0.0
 10
134.4768
 20
-152.4259
 30
0.0
 10
134.4768
 20
-152.4259
 30
0.0
 10
134.4768
 20
-152.4259
 30
0.0
 10
134.1575
 20
-152.4213
 30
0.0
 10
133.8389
 20
-152.391
 30
0.0
 10
133.5243
 20
-152.3352
 30
0.0
 10
133.5243
 20
-152.3352
 30
0.0
 10
130.2611
 20
-151.7595
 30
0.0
 10
128.0823
 20
-148.6473
 30
0.0
 10
128.658
 20
-145.3841
 30
0.0
  0
SPLINE
  5
81
330
1F
100
AcDbEntity
  8
layer 1
370
    35
100
AcDbSpline
210
0.0
220
0.0
230
1.0
 70
    11
 71
     3
 72
   132
 73
   128
 74
     0
 42
0.000000001
 43
0.0000000001
 40
0.0
 40
0.0
 40
0.0
 40
0.0
 40
0.0303030303030303
 40
0.0303030303030303
 40
0.0303030303030303
 40
0.0303030303030303
 40
0.0606060606060606
 40
0.0606060606060606
 40
0.0606060606060606
 40
0.0606060606060606
 40
0.0909090909090909
 40
0.0909090909090909
 40
0.0909090909090909
 40
0.0909090909090909
 40
0.1212121212121212
 40
0.1212121212121212
 40
0.1212121212121212
 40
0.1212121212121212
 40
0.1515151515151515
 40
0.1515151515151515
 40
0.1515151515151515
 40
0.1515151515151515
 40
0.1818181818181818
 40
0.1818181818181818
 40
0.1818181818181818
 40
0.1818181818181818
 40
0.2121212121212121
 40
0.2121212121212121
 40
0.2121212121212121
 40
0.2121212121212121
 40
0.2424242424242424
 40
0.2424242424242424
 40
0.2424242424242424
 40
0.2424242424242424
 40
0.2727272727272727
 40
0.2727272727272727
 40
0.2727272727272727
 40
0.2727272727272727
 40
0.303030303030303
 40
0.303030303030303
 40
0.303030303030303
 40
0.303030303030303
 40
0.3333333333333333
 40
0.3333333333333333
 40
0.3333333333333333
 40
0.3333333333333333
 40
0.3636363636363636
 40
0.3636363636363636
 40
0.3636363636363636
 40
0.3636363636363636
 40
0.3939393939393939
 40
0.3939393939393939
 40
0.3939393939393939
 40
0.3939393939393939
 40
0.4242424242424243
 40
0.4242424242424243
 40
0.4242424242424243
 40
0.4242424242424243
 40
0.4545454545454545
 40
0.4545454545454545
 40
0.4545454545454545
 40
0.4545454545454545
 40
0.4848484848484849
 40
0.4848484848484849
 40
0.4848484848484849
 40
0.4848484848484849
 40
0.5151515151515151
 40
0.5151515151515151
 40
0.5151515151515151
 40
0.5151515151515151
 40
0.5454545454545454
 40
0.5454545454545454
 40
0.5454545454545454
 40
0.5454545454545454
 40
0.5757575757575758
 40
0.5757575757575758
 40
0.5757575757575758
 40
0.5757575757575758
 40
0.6060606060606061
 40
0.6060606060606061
 40
0.6060606060606061
 40
0.6060606060606061
 40
0.6363636363636364
 40
0.6363636363636364
 40
0.6363636363636364
 40
0.6363636363636364
 40
0.6666666666666666
 40
0.6666666666666666
 40
0.6666666666666666
 40
0.6666666666666666
 40
0.696969696969697
 40
0.696969696969697
 40
0.696969696969697
 40
0.696969696969697
 40
0.7272727272727273
 40
0.7272727272727273
 40
0.7272727272727273
 40
0.7272727272727273
 40
0.7575757575757576
 40
0.7575757575757576
 40
0.7575757575757576
 40
0.7575757575757576
 40
0.7878787878787878
 40
0.7878787878787878
 40
0.7878787878787878
 40
0.7878787878787878
 40
0.8181818181818182
 40
0.8181818181818182
 40
0.8181818181818182
 40
0.8181818181818182
 40
0.8484848484848485
 40
0.8484848484848485
 40
0.8484848484848485
 40
0.8484848484848485
 40
0.8787878787878788
 40
0.8787878787878788
 40
0.8787878787878788
 40
0.8787878787878788
 40
0.9090909090909091
 40
0.9090909090909091
 40
0.9090909090909091
 40
0.9090909090909091
 40
0.9393939393939394
 40
0.9393939393939394
 40
0.9393939393939394
 40
0.9393939393939394
 40
1.0
 40
1.0
 40
1.0
 40
1.0
 10
98.6303
 20
40.6313
 30
0.0
 10
98.6303
 20
40.6313
 30
0.0
 10
117.1254
 20
-64.2586
 30
0.0
 10
117.1254
 20
-64.2586
 30
0.0
 10
117.1254
 20
-64.2586
 30
0.0
 10
117.6115
 20
-67.0156
 30
0.0
 10
117.6115
 20
-69.8364
 30
0.0
 10
117.1254
 20
-72.5937
 30
0.0
 10
117.1254
 20
-72.5937
 30
0.0
 10
117.1254
 20
-72.5937
 30
0.0
 10
101.9909
 20
-158.4259
 30
0.0
 10
101.9909
 20
-158.4259
 30
0.0
 10
101.9909
 20
-158.4259
 30
0.0
 10
101.9909
 20
-158.4259
 30
0.0
 10
126.9908
 20
-158.4259
 30
0.0
 10
126.9908
 20
-158.4259
 30
0.0
 10
126.9908
 20
-158.4259
 30
0.0
 10
126.9908
 20
-158.4259
 30
0.0
 10
126.9908
 20
-164.426
 30
0.0
 10
126.9908
 20
-164.426
 30
0.0
 10
126.9908
 20
-164.426
 30
0.0
 10
126.9908
 20
-164.426
 30
0.0
 10
101.9909
 20
-164.426
 30
0.0
 10
101.9909
 20
-164.426
 30
0.0
 10
101.9909
 20
-164.426
 30
0.0
 10
101.9909
 20
-167.7396
 30
0.0
 10
104.6769
 20
-170.426
 30
0.0
 10
107.9909
 20
-170.426
 30
0.0
 10
107.9909
 20
-170.426
 30
0.0
 10
107.9909
 20
-170.426
 30
0.0
 10
263.8795
 20
-170.426
 30
0.0
 10
263.8795
 20
-170.426
 30
0.0
 10
263.8795
 20
-170.426
 30
0.0
 10
263.8795
 20
-170.426
 30
0.0
 10
258.6701
 20
-140.8816
 30
0.0
 10
258.6701
 20
-140.8816
 30
0.0
 10
258.6701
 20
-140.8816
 30
0.0
 10
258.6701
 20
-140.8816
 30
0.0
 10
264.5791
 20
-139.8398
 30
0.0
 10
264.5791
 20
-139.8398
 30
0.0
 10
264.5791
 20
-139.8398
 30
0.0
 10
264.5791
 20
-139.8398
 30
0.0
 10
269.7886
 20
-169.3843
 30
0.0
 10
269.7886
 20
-169.3843
 30
0.0
 10
269.7886
 20
-169.3843
 30
0.0
 10
269.7886
 20
-169.3843
 30
0.0
 10
272.6979
 20
-168.871
 30
0.0
 10
272.6979
 20
-168.871
 30
0.0
 10
272.6979
 20
-168.871
 30
0.0
 10
275.9615
 20
-168.2956
 30
0.0
 10
278.1402
 20
-165.1837
 30
0.0
 10
277.5648
 20
-161.9202
 30
0.0
 10
277.5648
 20
-161.9202
 30
0.0
 10
277.5648
 20
-161.9202
 30
0.0
 10
261.8144
 20
-72.5937
 30
0.0
 10
261.8144
 20
-72.5937
 30
0.0
 10
261.8144
 20
-72.5937
 30
0.0
 10
261.7459
 20
-72.206
 30
0.0
 10
261.687
 20
-71.8165
 30
0.0
 10
261.638
 20
-71.426
 30
0.0
 10
261.638
 20
-71.426
 30
0.0
 10
261.638
 20
-71.426
 30
0.0
 10
189.6364
 20
-71.426
 30
0.0
 10
189.6364
 20
-71.426
 30
0.0
 10
189.6364
 20
-71.426
 30
0.0
 10
189.6364
 20
-71.426
 30
0.0
 10
189.6364
 20
-65.4259
 30
0.0
 10
189.6364
 20
-65.4259
 30
0.0
 10
189.6364
 20
-65.4259
 30
0.0
 10
189.6364
 20
-65.4259
 30
0.0
 10
261.638
 20
-65.4259
 30
0.0
 10
261.638
 20
-65.4259
 30
0.0
 10
261.638
 20
-65.4259
 30
0.0
 10
261.687
 20
-65.0354
 30
0.0
 10
261.7459
 20
-64.6459
 30
0.0
 10
261.8144
 20
-64.2586
 30
0.0
 10
261.8144
 20
-64.2586
 30
0.0
 10
261.8144
 20
-64.2586
 30
0.0
 10
279.2673
 20
34.7226
 30
0.0
 10
279.2673
 20
34.7226
 30
0.0
 10
279.2673
 20
34.7226
 30
0.0
 10
279.2673
 20
34.7226
 30
0.0
 10
267.4944
 20
36.7984
 30
0.0
 10
267.4944
 20
36.7984
 30
0.0
 10
267.4944
 20
36.7984
 30
0.0
 10
267.4944
 20
36.7984
 30
0.0
 10
268.5362
 20
42.7074
 30
0.0
 10
268.5362
 20
42.7074
 30
0.0
 10
268.5362
 20
42.7074
 30
0.0
 10
268.5362
 20
42.7074
 30
0.0
 10
280.3091
 20
40.6313
 30
0.0
 10
280.3091
 20
40.6313
 30
0.0
 10
280.3091
 20
40.6313
 30
0.0
 10
281.4556
 20
47.158
 30
0.0
 10
277.0939
 20
53.3786
 30
0.0
 10
270.5671
 20
54.5251
 30
0.0
 10
270.5671
 20
54.5251
 30
0.0
 10
264.0404
 20
55.6716
 30
0.0
 10
257.8202
 20
51.3099
 30
0.0
 10
256.6737
 20
44.7831
 30
0.0
 10
256.6737
 20
44.7831
 30
0.0
 10
256.6737
 20
44.7831
 30
0.0
 10
239.7019
 20
-51.4679
 30
0.0
 10
239.7019
 20
-51.4679
 30
0.0
 10
239.7019
 20
-51.4679
 30
0.0
 10
239.2024
 20
-54.3022
 30
0.0
 10
236.7608
 20
-56.3828
 30
0.0
 10
233.8832
 20
-56.4259
 30
0.0
 10
233.8832
 20
-56.4259
 30
0.0
 10
233.8832
 20
-56.4259
 30
0.0
 10
145.0566
 20
-56.4259
 30
0.0
 10
145.0566
 20
-56.4259
 30
0.0
 10
145.0566
 20
-56.4259
 30
0.0
 10
142.179
 20
-56.3828
 30
0.0
 10
139.737
 20
-54.3022
 30
0.0
 10
139.2379
 20
-51.4679
 30
0.0
 10
139.2379
 20
-51.4679
 30
0.0
 10
139.2379
 20
-51.4679
 30
0.0
 10
122.2661
 20
44.7831
 30
0.0
 10
122.2661
 20
44.7831
 30
0.0
 10
122.2661
 20
44.7831
 30
0.0
 10
121.1195
 20
51.3099
 30
0.0
 10
114.899
 20
55.6716
 30
0.0
 10
108.3723
 20
54.5251
 30
0.0
 10
108.3723
 20
54.5251
 30
0.0
 10
101.8455
 20
53.3786
 30
0.0
 10
97.4838
 20
47.158
 30
0.0
 10
98.6303
 20
40.6313
 30
0.0
  0
ENDSEC
  0
SECTION
  2
OBJECTS
  0
DICTIONARY
  5
C
330
0
100
AcDbDictionary
281
     1
  3
ACAD_DETAILVIEWSTYLE
350
BD
  3
ACAD_GROUP
350
D
  3
ACAD_LAYOUT
350
1A
  3
ACAD_MATERIAL
350
43
  3
ACAD_MLEADERSTYLE
350
6B
  3
ACAD_MLINESTYLE
350
17
  3
ACAD_PLOTSETTINGS
350
19
  3
ACAD_PLOTSTYLENAME
350
E
  3
ACAD_SCALELIST
350
47
  3
ACAD_SECTIONVIEWSTYLE
350
BE
  3
ACAD_TABLESTYLE
350
69
  3
ACAD_VISUALSTYLE
350
2A
  3
ACDB_RECOMPOSE_DATA
350
BA
  3
AcDbVariableDictionary
350
82
  0
SUN
  5
6D
330
29
100
AcDbSun
 90
        1
290
     0
 63
     7
421
 16777215
 40
1.0
291
     1
 91
  2455826
 92
 54000000
292
     0
 70
     2
 71
   256
280
     1
  0
DICTIONARY
  5
BD
102
{ACAD_REACTORS
330
C
102
}
330
C
100
AcDbDictionary
281
     1
  0
DICTIONARY
  5
D
102
{ACAD_REACTORS
330
C
102
}
330
C
100
AcDbDictionary
281
     1
  0
DICTIONARY
  5
1A
102
{ACAD_REACTORS
330
C
102
}
330
C
100
AcDbDictionary
281
     1
  3
Layout1
350
1E
  3
Layout2
350
26
  3
Model
350
22
  0
DICTIONARY
  5
43
102
{ACAD_REACTORS
330
C
102
}
330
C
100
AcDbDictionary
281
     1
  3
ByBlock
350
45
  3
ByLayer
350
44
  3
Global
350
46
  0
DICTIONARY
  5
6B
102
{ACAD_REACTORS
330
C
102
}
330
C
100
AcDbDictionary
281
     1
  3
Standard
350
6C
  0
DICTIONARY
  5
17
102
{ACAD_REACTORS
330
C
102
}
330
C
100
AcDbDictionary
281
     1
  3
Standard
350
18
  0
DICTIONARY
  5
19
102
{ACAD_REACTORS
330
C
102
}
330
C
100
AcDbDictionary
281
     1
  0
ACDBDICTIONARYWDFLT
  5
E
102
{ACAD_REACTORS
330
C
102
}
330
C
100
AcDbDictionary
281
     1
  3
Normal
350
F
100
AcDbDictionaryWithDefault
340
F
  0
DICTIONARY
  5
47
102
{ACAD_REACTORS
330
C
102
}
330
C
100
AcDbDictionary
281
     1
  3
A0
350
48
  3
A1
350
49
  3
A2
350
4A
  3
A3
350
4B
  3
A4
350
4C
  3
A5
350
4D
  3
A6
350
4E
  3
A7
350
4F
  3
A8
350
50
  3
A9
350
51
  3
B0
350
52
  3
B1
350
53
  3
B2
350
54
  3
B3
350
55
  3
B4
350
56
  3
B5
350
57
  3
B6
350
58
  3
B7
350
59
  3
B8
350
5A
  3
B9
350
5B
  3
C0
350
5C
  3
C1
350
5D
  3
C2
350
5E
  3
C3
350
5F
  3
C4
350
60
  3
C5
350
61
  3
C6
350
62
  3
C7
350
63
  3
C8
350
64
  3
C9
350
65
  3
D0
350
66
  3
D1
350
67
  3
D2
350
68
  0
DICTIONARY
  5
BE
102
{ACAD_REACTORS
330
C
102
}
330
C
100
AcDbDictionary
281
     1
  0
DICTIONARY
  5
69
102
{ACAD_REACTORS
330
C
102
}
330
C
100
AcDbDictionary
281
     1
  3
Standard
350
6A
  0
DICTIONARY
  5
2A
102
{ACAD_REACTORS
330
C
102
}
330
C
100
AcDbDictionary
281
     1
  3
2dWireframe
350
2F
  3
Basic
350
32
  3
Brighten
350
36
  3
ColorChange
350
3A
  3
Conceptual
350
34
  3
Dim
350
35
  3
EdgeColorOff
350
3D
  3
Facepattern
350
39
  3
Flat
350
2B
  3
FlatWithEdges
350
2C
  3
Gouraud
350
2D
  3
GouraudWithEdges
350
2E
  3
Hidden
350
31
  3
JitterOff
350
3B
  3
Linepattern
350
38
  3
OverhangOff
350
3C
  3
Realistic
350
33
  3
Shaded
350
42
  3
Shaded with edges
350
41
  3
Shades of Gray
350
3E
  3
Sketchy
350
3F
  3
Thicken
350
37
  3
Wireframe
350
30
  3
X-Ray
350
40
  0
XRECORD
  5
BA
102
{ACAD_REACTORS
330
C
102
}
330
C
100
AcDbXrecord
280
     1
 90
        1
330
6A
  0
DICTIONARY
  5
82
102
{ACAD_REACTORS
330
C
102
}
330
C
100
AcDbDictionary
281
     1
  3
CANNOSCALE
350
83
  3
CMLEADERSTYLE
350
BC
  3
CTABLESTYLE
350
BB
  3
XCLIPFRAME
350
84
  0
LAYOUT
  5
1E
102
{ACAD_REACTORS
330
1A
102
}
330
1A
100
AcDbPlotSettings
  1

  2
none_device
  4

  6

 40
0.0
 41
0.0
 42
0.0
 43
0.0
 44
0.0
 45
0.0
 46
0.0
 47
0.0
 48
0.0
 49
0.0
140
0.0
141
0.0
142
1.0
143
1.0
 70
   688
 72
     0
 73
     0
 74
     5
  7

 75
    16
 76
     0
 77
     2
 78
   300
147
1.0
148
0.0
149
0.0
100
AcDbLayout
  1
Layout1
 70
     1
 71
     1
 10
0.0
 20
0.0
 11
12.0
 21
9.0
 12
0.0
 22
0.0
 32
0.0
 14
1.000000000000000E+20
 24
1.000000000000000E+20
 34
1.000000000000000E+20
 15
-1.000000000000000E+20
 25
-1.000000000000000E+20
 35
-1.000000000000000E+20
146
0.0
 13
0.0
 23
0.0
 33
0.0
 16
1.0
 26
0.0
 36
0.0
 17
0.0
 27
1.0
 37
0.0
 76
     0
330
1B
  0
LAYOUT
  5
26
102
{ACAD_REACTORS
330
1A
102
}
330
1A
100
AcDbPlotSettings
  1

  2
none_device
  4

  6

 40
0.0
 41
0.0
 42
0.0
 43
0.0
 44
0.0
 45
0.0
 46
0.0
 47
0.0
 48
0.0
 49
0.0
140
0.0
141
0.0
142
1.0
143
1.0
 70
   688
 72
     0
 73
     0
 74
     5
  7

 75
    16
 76
     0
 77
     2
 78
   300
147
1.0
148
0.0
149
0.0
100
AcDbLayout
  1
Layout2
 70
     1
 71
     2
 10
0.0
 20
0.0
 11
0.0
 21
0.0
 12
0.0
 22
0.0
 32
0.0
 14
0.0
 24
0.0
 34
0.0
 15
0.0
 25
0.0
 35
0.0
146
0.0
 13
0.0
 23
0.0
 33
0.0
 16
1.0
 26
0.0
 36
0.0
 17
0.0
 27
1.0
 37
0.0
 76
     0
330
23
  0
LAYOUT
  5
22
102
{ACAD_REACTORS
330
1A
102
}
330
1A
100
AcDbPlotSettings
  1

  2
none_device
  4
Letter_(8.50_x_11.00_Inches)
  6

 40
6.35
 41
6.35
 42
6.35000508
 43
6.35000508
 44
215.9
 45
279.4
 46
0.0
 47
0.0
 48
0.0
 49
0.0
140
0.0
141
0.0
142
1.0
143
1.0
 70
  1712
 72
     0
 73
     0
 74
     0
  7

 75
     0
 76
     0
 77
     2
 78
   300
147
1.0
148
0.0
149
0.0
100
AcDbLayout
  1
Model
 70
     1
 71
     0
 10
0.0
 20
0.0
 11
12.0
 21
9.0
 12
0.0
 22
0.0
 32
0.0
 14
-267.9926
 24
-170.9564
 34
0.0
 15
280.6655
 25
179.5988
 35
0.0
146
0.0
 13
0.0
 23
0.0
 33
0.0
 16
1.0
 26
0.0
 36
0.0
 17
0.0
 27
1.0
 37
0.0
 76
     0
330
1F
331
29
  0
MATERIAL
  5
45
102
{ACAD_REACTORS
330
43
102
}
330
43
100
AcDbMaterial
  1
ByBlock
 72
     1
 94
      127
  0
MATERIAL
  5
44
102
{ACAD_REACTORS
330
43
102
}
330
43
100
AcDbMaterial
  1
ByLayer
 72
     1
 94
      127
  0
MATERIAL
  5
46
102
{ACAD_REACTORS
330
43
102
}
330
43
100
AcDbMaterial
  1
Global
 72
     1
 94
      127
  0
MLEADERSTYLE
  5
6C
102
{ACAD_REACTORS
330
6B
102
}
102
{ACAD_XDICTIONARY
360
B8
102
}
330
6B
100
AcDbMLeaderStyle
170
     2
171
     1
172
     0
 90
        2
 40
0.0
 41
0.0
173
     1
 91
-1056964608
340
14
 92
       -2
290
     1
 42
0.09
291
     1
 43
0.36
  3
Standard
341
0
 44
0.18
300

342
11
174
     1
178
     6
175
     1
176
     0
 93
-1056964608
 45
0.18
292
     0
297
     0
 46
0.18
343
0
 94
-1056964608
 47
1.0
 49
1.0
140
1.0
293
     1
141
0.0
294
     1
177
     0
142
1.0
295
     0
296
     0
143
0.125
1001
ACAD_MLEADERVER
1070
     2
  0
MLINESTYLE
  5
18
102
{ACAD_REACTORS
330
17
102
}
330
17
100
AcDbMlineStyle
  2
Standard
 70
     0
  3

 62
   256
 51
90.0
 52
90.0
 71
     2
 49
0.5
 62
   256
  6
BYLAYER
 49
-0.5
 62
   256
  6
BYLAYER
  0
ACDBPLACEHOLDER
  5
F
102
{ACAD_REACTORS
330
E
102
}
330
E
  0
SCALE
  5
48
102
{ACAD_REACTORS
330
47
102
}
330
47
100
AcDbScale
 70
     0
300
1:1
140
1.0
141
1.0
290
     1
  0
SCALE
  5
49
102
{ACAD_REACTORS
330
47
102
}
330
47
100
AcDbScale
 70
     0
300
1:2
140
1.0
141
2.0
290
     0
  0
SCALE
  5
4A
102
{ACAD_REACTORS
330
47
102
}
330
47
100
AcDbScale
 70
     0
300
1:4
140
1.0
141
4.0
290
     0
  0
SCALE
  5
4B
102
{ACAD_REACTORS
330
47
102
}
330
47
100
AcDbScale
 70
     0
300
1:5
140
1.0
141
5.0
290
     0
  0
SCALE
  5
4C
102
{ACAD_REACTORS
330
47
102
}
330
47
100
AcDbScale
 70
     0
300
1:8
140
1.0
141
8.0
290
     0
  0
SCALE
  5
4D
102
{ACAD_REACTORS
330
47
102
}
330
47
100
AcDbScale
 70
     0
300
1:10
140
1.0
141
10.0
290
     0
  0
SCALE
  5
4E
102
{ACAD_REACTORS
330
47
102
}
330
47
100
AcDbScale
 70
     0
300
1:16
140
1.0
141
16.0
290
     0
  0
SCALE
  5
4F
102
{ACAD_REACTORS
330
47
102
}
330
47
100
AcDbScale
 70
     0
300
1:20
140
1.0
141
20.0
290
     0
  0
SCALE
  5
50
102
{ACAD_REACTORS
330
47
102
}
330
47
100
AcDbScale
 70
     0
300
1:30
140
1.0
141
30.0
290
     0
  0
SCALE
  5
51
102
{ACAD_REACTORS
330
47
102
}
330
47
100
AcDbScale
 70
     0
300
1:40
140
1.0
141
40.0
290
     0
  0
SCALE
  5
52
102
{ACAD_REACTORS
330
47
102
}
330
47
100
AcDbScale
 70
     0
300
1:50
140
1.0
141
50.0
290
     0
  0
SCALE
  5
53
102
{ACAD_REACTORS
330
47
102
}
330
47
100
AcDbScale
 70
     0
300
1:100
140
1.0
141
100.0
290
     0
  0
SCALE
  5
54
102
{ACAD_REACTORS
330
47
102
}
330
47
100
AcDbScale
 70
     0
300
2:1
140
2.0
141
1.0
290
     0
  0
SCALE
  5
55
102
{ACAD_REACTORS
330
47
102
}
330
47
100
AcDbScale
 70
     0
300
4:1
140
4.0
141
1.0
290
     0
  0
SCALE
  5
56
102
{ACAD_REACTORS
330
47
102
}
330
47
100
AcDbScale
 70
     0
300
8:1
140
8.0
141
1.0
290
     0
  0
SCALE
  5
57
102
{ACAD_REACTORS
330
47
102
}
330
47
100
AcDbScale
 70
     0
300
10:1
140
10.0
141
1.0
290
     0
  0
SCALE
  5
58
102
{ACAD_REACTORS
330
47
102
}
330
47
100
AcDbScale
 70
     0
300
100:1
140
100.0
141
1.0
290
     0
  0
SCALE
  5
59
102
{ACAD_REACTORS
330
47
102
}
330
47
100
AcDbScale
 70
     0
300
1/128" = 1'-0"
140
0.0078125
141
12.0
290
     0
  0
SCALE
  5
5A
102
{ACAD_REACTORS
330
47
102
}
330
47
100
AcDbScale
 70
     0
300
1/64" = 1'-0"
140
0.015625
141
12.0
290
     0
  0
SCALE
  5
5B
102
{ACAD_REACTORS
330
47
102
}
330
47
100
AcDbScale
 70
     0
300
1/32" = 1'-0"
140
0.03125
141
12.0
290
     0
  0
SCALE
  5
5C
102
{ACAD_REACTORS
330
47
102
}
330
47
100
AcDbScale
 70
     0
300
1/16" = 1'-0"
140
0.0625
141
12.0
290
     0
  0
SCALE
  5
5D
102
{ACAD_REACTORS
330
47
102
}
330
47
100
AcDbScale
 70
     0
300
3/32" = 1'-0"
140
0.09375
141
12.0
290
     0
  0
SCALE
  5
5E
102
{ACAD_REACTORS
330
47
102
}
330
47
100
AcDbScale
 70
     0
300
1/8" = 1'-0"
140
0.125
141
12.0
290
     0
  0
SCALE
  5
5F
102
{ACAD_REACTORS
330
47
102
}
330
47
100
AcDbScale
 70
     0
300
3/16" = 1'-0"
140
0.1875
141
12.0
290
     0
  0
SCALE
  5
60
102
{ACAD_REACTORS
330
47
102
}
330
47
100
AcDbScale
 70
     0
300
1/4" = 1'-0"
140
0.25
141
12.0
290
     0
  0
SCALE
  5
61
102
{ACAD_REACTORS
330
47
102
}
330
47
100
AcDbScale
 70
     0
300
3/8" = 1'-0"
140
0.375
141
12.0
290
     0
  0
SCALE
  5
62
102
{ACAD_REACTORS
330
47
102
}
330
47
100
AcDbScale
 70
     0
300
1/2" = 1'-0"
140
0.5
141
12.0
290
     0
  0
SCALE
  5
63
102
{ACAD_REACTORS
330
47
102
}
330
47
100
AcDbScale
 70
     0
300
3/4" = 1'-0"
140
0.75
141
12.0
290
     0
  0
SCALE
  5
64
102
{ACAD_REACTORS
330
47
102
}
330
47
100
AcDbScale
 70
     0
300
1" = 1'-0"
140
1.0
141
12.0
290
     0
  0
SCALE
  5
65
102
{ACAD_REACTORS
330
47
102
}
330
47
100
AcDbScale
 70
     0
300
1-1/2" = 1'-0"
140
1.5
141
12.0
290
     0
  0
SCALE
  5
66
102
{ACAD_REACTORS
330
47
102
}
330
47
100
AcDbScale
 70
     0
300
3" = 1'-0"
140
3.0
141
12.0
290
     0
  0
SCALE
  5
67
102
{ACAD_REACTORS
330
47
102
}
330
47
100
AcDbScale
 70
     0
300
6" = 1'-0"
140
6.0
141
12.0
290
     0
  0
SCALE
  5
68
102
{ACAD_REACTORS
330
47
102
}
330
47
100
AcDbScale
 70
     0
300
1'-0" = 1'-0"
140
12.0
141
12.0
290
     0
  0
TABLESTYLE
  5
6A
102
{ACAD_REACTORS
330
69
102
}
102
{ACAD_XDICTIONARY
360
B5
102
}
330
69
100
AcDbTableStyle
  3
Standard
 70
     0
 71
     0
 40
0.06
 41
0.06
280
     0
281
     0
  7
Standard
140
0.18
170
     2
 62
     0
 63
   257
283
     0
 90
        4
 91
        0
  1

274
    -2
284
     1
 64
     0
275
    -2
285
     1
 65
     0
276
    -2
286
     1
 66
     0
277
    -2
287
     1
 67
     0
278
    -2
288
     1
 68
     0
279
    -2
289
     1
 69
     0
  7
Standard
140
0.25
170
     5
 62
     0
 63
   257
283
     0
 90
        4
 91
        0
  1

274
    -2
284
     1
 64
     0
275
    -2
285
     1
 65
     0
276
    -2
286
     1
 66
     0
277
    -2
287
     1
 67
     0
278
    -2
288
     1
 68
     0
279
    -2
289
     1
 69
     0
  7
Standard
140
0.18
170
     5
 62
     0
 63
   257
283
     0
 90
        4
 91
        0
  1

274
    -2
284
     1
 64
     0
275
    -2
285
     1
 65
     0
276
    -2
286
     1
 66
     0
277
    -2
287
     1
 67
     0
278
    -2
288
     1
 68
     0
279
    -2
289
     1
 69
     0
  0
VISUALSTYLE
  5
2F
102
{ACAD_REACTORS
330
2A
102
}
102
{ACAD_XDICTIONARY
360
8D
102
}
330
2A
100
AcDbVisualStyle
  2
2dWireframe
 70
     4
 71
     0
 72
     2
 73
     0
 90
        0
 40
0.6
 41
30.0
 62
     5
 63
     7
421
 16777215
 74
     1
 91
        4
 64
     7
 65
   257
 75
     1
175
     1
 42
1.0
 92
        0
 66
   257
 43
1.0
 76
     1
 77
     6
 78
     2
 67
     7
 79
     5
170
     0
171
     0
290
     0
174
     0
 93
        1
 44
0.0
173
     0
291
     0
 45
0.0
  0
VISUALSTYLE
  5
32
102
{ACAD_REACTORS
330
2A
102
}
102
{ACAD_XDICTIONARY
360
93
102
}
330
2A
100
AcDbVisualStyle
  2
Basic
 70
     7
 71
     1
 72
     0
 73
     1
 90
        0
 40
0.6
 41
30.0
 62
     5
 63
     7
421
 16777215
 74
     0
 91
        4
 64
     7
 65
   257
 75
     1
175
     1
 42
1.0
 92
        8
 66
     7
 43
1.0
 76
     1
 77
     6
 78
     2
 67
     7
 79
     5
170
     0
171
     0
290
     0
174
     0
 93
        1
 44
0.0
173
     0
291
     1
 45
0.0
  0
VISUALSTYLE
  5
36
102
{ACAD_REACTORS
330
2A
102
}
102
{ACAD_XDICTIONARY
360
9B
102
}
330
2A
100
AcDbVisualStyle
  2
Brighten
 70
    12
 71
     2
 72
     2
 73
     0
 90
        0
 40
0.6
 41
30.0
 62
     5
 63
     7
421
 16777215
 74
     1
 91
        4
 64
     7
 65
   257
 75
     1
175
     1
 42
1.0
 92
        8
 66
     7
 43
1.0
 76
     1
 77
     6
 78
     2
 67
     7
 79
     5
170
     0
171
     0
290
     0
174
     0
 93
        1
 44
50.0
173
     0
291
     1
 45
0.0
  0
VISUALSTYLE
  5
3A
102
{ACAD_REACTORS
330
2A
102
}
102
{ACAD_XDICTIONARY
360
A3
102
}
330
2A
100
AcDbVisualStyle
  2
ColorChange
 70
    16
 71
     2
 72
     2
 73
     3
 90
        0
 40
0.6
 41
30.0
 62
     5
 63
     8
421
  8421504
 74
     1
 91
        4
 64
     7
 65
   257
 75
     1
175
     1
 42
1.0
 92
        8
 66
     8
424
  8421504
 43
1.0
 76
     1
 77
     6
 78
     2
 67
     7
 79
     5
170
     0
171
     0
290
     0
174
     0
 93
        1
 44
0.0
173
     0
291
     1
 45
0.0
  0
VISUALSTYLE
  5
34
102
{ACAD_REACTORS
330
2A
102
}
102
{ACAD_XDICTIONARY
360
97
102
}
330
2A
100
AcDbVisualStyle
  2
Conceptual
 70
     9
 71
     3
 72
     2
 73
     0
 90
        0
 40
0.6
 41
30.0
 62
     5
 63
     7
421
 16777215
 74
     2
 91
        2
 64
     7
 65
   257
 75
     1
175
     1
 42
179.0
 92
        8
 66
     7
 43
1.0
 76
     1
 77
     6
 78
     2
 67
     7
 79
     3
170
     0
171
     0
290
     0
174
     0
 93
        1
 44
0.0
173
     0
291
     0
 45
0.0
  0
VISUALSTYLE
  5
35
102
{ACAD_REACTORS
330
2A
102
}
102
{ACAD_XDICTIONARY
360
99
102
}
330
2A
100
AcDbVisualStyle
  2
Dim
 70
    11
 71
     2
 72
     2
 73
     0
 90
        0
 40
0.6
 41
30.0
 62
     5
 63
     7
421
 16777215
 74
     1
 91
        4
 64
     7
 65
   257
 75
     1
175
     1
 42
1.0
 92
        8
 66
     7
 43
1.0
 76
     1
 77
     6
 78
     2
 67
     7
 79
     5
170
     0
171
     0
290
     0
174
     0
 93
        1
 44
-50.0
173
     0
291
     1
 45
0.0
  0
VISUALSTYLE
  5
3D
102
{ACAD_REACTORS
330
2A
102
}
102
{ACAD_XDICTIONARY
360
A9
102
}
330
2A
100
AcDbVisualStyle
  2
EdgeColorOff
 70
    22
 71
     2
 72
     2
 73
     0
 90
        0
 40
0.6
 41
30.0
 62
     5
 63
     7
421
 16777215
 74
     1
 91
        4
 64
     7
 65
   257
 75
     1
175
     1
 42
1.0
 92
        8
 66
     7
 43
1.0
 76
     1
 77
     6
 78
     2
 67
     7
 79
     5
170
     0
171
     0
290
     0
174
     0
 93
        1
 44
0.0
173
     0
291
     1
 45
0.0
  0
VISUALSTYLE
  5
39
102
{ACAD_REACTORS
330
2A
102
}
102
{ACAD_XDICTIONARY
360
A1
102
}
330
2A
100
AcDbVisualStyle
  2
Facepattern
 70
    15
 71
     2
 72
     2
 73
     0
 90
        0
 40
0.6
 41
30.0
 62
     5
 63
     7
421
 16777215
 74
     1
 91
        4
 64
     7
 65
   257
 75
     1
175
     1
 42
1.0
 92
        8
 66
     7
 43
1.0
 76
     1
 77
     6
 78
     2
 67
     7
 79
     5
170
     0
171
     0
290
     0
174
     0
 93
        1
 44
0.0
173
     0
291
     1
 45
0.0
  0
VISUALSTYLE
  5
2B
102
{ACAD_REACTORS
330
2A
102
}
102
{ACAD_XDICTIONARY
360
85
102
}
330
2A
100
AcDbVisualStyle
  2
Flat
 70
     0
 71
     2
 72
     1
 73
     1
 90
        2
 40
0.6
 41
30.0
 62
     5
 63
     7
421
 16777215
 74
     0
 91
        0
 64
     7
 65
   257
 75
     1
175
     1
 42
1.0
 92
        8
 66
     7
 43
1.0
 76
     1
 77
     6
 78
     2
 67
     7
 79
     5
170
     0
171
     0
290
     0
174
     0
 93
       13
 44
0.0
173
     0
291
     1
 45
0.0
  0
VISUALSTYLE
  5
2C
102
{ACAD_REACTORS
330
2A
102
}
102
{ACAD_XDICTIONARY
360
87
102
}
330
2A
100
AcDbVisualStyle
  2
FlatWithEdges
 70
     1
 71
     2
 72
     1
 73
     1
 90
        2
 40
0.6
 41
30.0
 62
     5
 63
     7
421
 16777215
 74
     1
 91
        0
 64
     7
 65
   257
 75
     1
175
     1
 42
1.0
 92
        0
 66
   257
 43
1.0
 76
     1
 77
     6
 78
     2
 67
     7
 79
     5
170
     0
171
     0
290
     0
174
     0
 93
       13
 44
0.0
173
     0
291
     1
 45
0.0
  0
VISUALSTYLE
  5
2D
102
{ACAD_REACTORS
330
2A
102
}
102
{ACAD_XDICTIONARY
360
89
102
}
330
2A
100
AcDbVisualStyle
  2
Gouraud
 70
     2
 71
     2
 72
     2
 73
     1
 90
        2
 40
0.6
 41
30.0
 62
     5
 63
     7
421
 16777215
 74
     0
 91
        0
 64
     7
 65
   257
 75
     1
175
     1
 42
1.0
 92
        0
 66
     7
 43
1.0
 76
     1
 77
     6
 78
     2
 67
     7
 79
     5
170
     0
171
     0
290
     0
174
     0
 93
       13
 44
0.0
173
     0
291
     1
 45
0.0
  0
VISUALSTYLE
  5
2E
102
{ACAD_REACTORS
330
2A
102
}
102
{ACAD_XDICTIONARY
360
8B
102
}
330
2A
100
AcDbVisualStyle
  2
GouraudWithEdges
 70
     3
 71
     2
 72
     2
 73
     1
 90
        2
 40
0.6
 41
30.0
 62
     5
 63
     7
421
 16777215
 74
     1
 91
        0
 64
     7
 65
   257
 75
     1
175
     1
 42
1.0
 92
        0
 66
   257
 43
1.0
 76
     1
 77
     6
 78
     2
 67
     7
 79
     5
170
     0
171
     0
290
     0
174
     0
 93
       13
 44
0.0
173
     0
291
     1
 45
0.0
  0
VISUALSTYLE
  5
31
102
{ACAD_REACTORS
330
2A
102
}
102
{ACAD_XDICTIONARY
360
91
102
}
330
2A
100
AcDbVisualStyle
  2
Hidden
 70
     6
 71
     1
 72
     2
 73
     2
 90
        0
 40
0.6
 41
30.0
 62
     5
 63
     7
421
 16777215
 74
     2
 91
        2
 64
     7
 65
   257
 75
     2
175
     1
 42
40.0
 92
        0
 66
   257
 43
1.0
 76
     1
 77
     6
 78
     2
 67
     7
 79
     3
170
     0
171
     0
290
     0
174
     0
 93
        1
 44
0.0
173
     0
291
     0
 45
0.0
  0
VISUALSTYLE
  5
3B
102
{ACAD_REACTORS
330
2A
102
}
102
{ACAD_XDICTIONARY
360
A5
102
}
330
2A
100
AcDbVisualStyle
  2
JitterOff
 70
    20
 71
     2
 72
     2
 73
     0
 90
        0
 40
0.6
 41
30.0
 62
     5
 63
     7
421
 16777215
 74
     1
 91
        4
 64
     7
 65
   257
 75
     1
175
     1
 42
1.0
 92
       10
 66
     7
 43
1.0
 76
     1
 77
     6
 78
     2
 67
     7
 79
     5
170
     0
171
     0
290
     0
174
     0
 93
        1
 44
0.0
173
     0
291
     1
 45
0.0
  0
VISUALSTYLE
  5
38
102
{ACAD_REACTORS
330
2A
102
}
102
{ACAD_XDICTIONARY
360
9F
102
}
330
2A
100
AcDbVisualStyle
  2
Linepattern
 70
    14
 71
     2
 72
     2
 73
     0
 90
        0
 40
0.6
 41
30.0
 62
     5
 63
     7
421
 16777215
 74
     1
 91
        4
 64
     7
 65
   257
 75
     7
175
     7
 42
1.0
 92
        8
 66
     7
 43
1.0
 76
     1
 77
     6
 78
     2
 67
     7
 79
     5
170
     0
171
     0
290
     0
174
     0
 93
        1
 44
0.0
173
     0
291
     1
 45
0.0
  0
VISUALSTYLE
  5
3C
102
{ACAD_REACTORS
330
2A
102
}
102
{ACAD_XDICTIONARY
360
A7
102
}
330
2A
100
AcDbVisualStyle
  2
OverhangOff
 70
    21
 71
     2
 72
     2
 73
     0
 90
        0
 40
0.6
 41
30.0
 62
     5
 63
     7
421
 16777215
 74
     1
 91
        4
 64
     7
 65
   257
 75
     1
175
     1
 42
1.0
 92
        9
 66
     7
 43
1.0
 76
     1
 77
     6
 78
     2
 67
     7
 79
     5
170
     0
171
     0
290
     0
174
     0
 93
        1
 44
0.0
173
     0
291
     1
 45
0.0
  0
VISUALSTYLE
  5
33
102
{ACAD_REACTORS
330
2A
102
}
102
{ACAD_XDICTIONARY
360
95
102
}
330
2A
100
AcDbVisualStyle
  2
Realistic
 70
     8
 71
     2
 72
     3
 73
     0
 90
        2
 40
0.6
 41
30.0
 62
     5
 63
     7
421
 16777215
 74
     0
 91
        0
 64
     7
 65
   257
 75
     1
175
     1
 42
1.0
 92
        8
 66
   257
 43
1.0
 76
     1
 77
     6
 78
     2
 67
     7
 79
     3
170
     0
171
     0
290
     0
174
     0
 93
       13
 44
0.0
173
     0
291
     0
 45
0.0
  0
VISUALSTYLE
  5
42
102
{ACAD_REACTORS
330
2A
102
}
102
{ACAD_XDICTIONARY
360
B3
102
}
330
2A
100
AcDbVisualStyle
  2
Shaded
 70
    27
 71
     2
 72
     2
 73
     1
 90
        2
 40
0.6
 41
30.0
 62
     5
 63
     7
421
 16777215
 74
     0
 91
        4
 64
     7
 65
   257
 75
     1
175
     1
 42
1.0
 92
        8
 66
   257
 43
1.0
 76
     1
 77
     6
 78
     2
 67
     8
425
  7895160
 79
     3
170
     0
171
     0
290
     0
174
     0
 93
        5
 44
0.0
173
     0
291
     0
 45
0.0
  0
VISUALSTYLE
  5
41
102
{ACAD_REACTORS
330
2A
102
}
102
{ACAD_XDICTIONARY
360
B1
102
}
330
2A
100
AcDbVisualStyle
  2
Shaded with edges
 70
    26
 71
     2
 72
     2
 73
     1
 90
        2
 40
0.6
 41
30.0
 62
     5
 63
     7
421
 16777215
 74
     1
 91
       10
 64
     7
 65
   257
 75
     2
175
     1
 42
1.0
 92
        8
 66
   257
 43
1.0
 76
     1
 77
     6
 78
     2
 67
     7
 79
     3
170
     0
171
     0
290
     0
174
     0
 93
        5
 44
0.0
173
     0
291
     0
 45
0.0
  0
VISUALSTYLE
  5
3E
102
{ACAD_REACTORS
330
2A
102
}
102
{ACAD_XDICTIONARY
360
AB
102
}
330
2A
100
AcDbVisualStyle
  2
Shades of Gray
 70
    23
 71
     2
 72
     2
 73
     3
 90
        0
 40
0.6
 41
30.0
 62
     5
 63
     7
421
 16777215
 74
     2
 91
        2
 64
     7
 65
     7
 75
     1
175
     1
 42
40.0
 92
        8
 66
     7
 43
1.0
 76
     1
 77
     6
 78
     2
 67
     7
 79
     3
170
     0
171
     0
290
     0
174
     0
 93
        1
 44
0.0
173
     0
291
     0
 45
0.0
  0
VISUALSTYLE
  5
3F
102
{ACAD_REACTORS
330
2A
102
}
102
{ACAD_XDICTIONARY
360
AD
102
}
330
2A
100
AcDbVisualStyle
  2
Sketchy
 70
    24
 71
     1
 72
     2
 73
     2
 90
        0
 40
0.6
 41
30.0
 62
     5
 63
     7
421
 16777215
 74
     2
 91
        2
 64
     7
 65
     7
 75
     1
175
     1
 42
40.0
 92
       11
 66
     7
 43
1.0
 76
     1
 77
     6
 78
     2
 67
     7
 79
     6
170
     0
171
     0
290
     0
174
     0
 93
        1
 44
0.0
173
     0
291
     0
 45
0.0
  0
VISUALSTYLE
  5
37
102
{ACAD_REACTORS
330
2A
102
}
102
{ACAD_XDICTIONARY
360
9D
102
}
330
2A
100
AcDbVisualStyle
  2
Thicken
 70
    13
 71
     2
 72
     2
 73
     0
 90
        0
 40
0.6
 41
30.0
 62
     5
 63
     7
421
 16777215
 74
     1
 91
        4
 64
     7
 65
   257
 75
     1
175
     1
 42
1.0
 92
       12
 66
     7
 43
1.0
 76
     1
 77
     6
 78
     2
 67
     7
 79
     5
170
     0
171
     0
290
     0
174
     0
 93
        1
 44
0.0
173
     0
291
     1
 45
0.0
  0
VISUALSTYLE
  5
30
102
{ACAD_REACTORS
330
2A
102
}
102
{ACAD_XDICTIONARY
360
8F
102
}
330
2A
100
AcDbVisualStyle
  2
Wireframe
 70
     5
 71
     0
 72
     2
 73
     0
 90
        0
 40
0.6
 41
30.0
 62
     5
 63
     7
421
 16777215
 74
     1
 91
        4
 64
     7
 65
   257
 75
     1
175
     1
 42
1.0
 92
        0
 66
   257
 43
1.0
 76
     1
 77
     6
 78
     2
 67
     7
 79
     3
170
     0
171
     0
290
     0
174
     0
 93
        1
 44
0.0
173
     0
291
     0
 45
0.0
  0
VISUALSTYLE
  5
40
102
{ACAD_REACTORS
330
2A
102
}
102
{ACAD_XDICTIONARY
360
AF
102
}
330
2A
100
AcDbVisualStyle
  2
X-Ray
 70
    25
 71
     2
 72
     2
 73
     1
 90
        1
 40
0.5
 41
30.0
 62
     5
 63
     7
421
 16777215
 74
     1
 91
        0
 64
     7
 65
   257
 75
     1
175
     1
 42
1.0
 92
        8
 66
     7
 43
1.0
 76
     1
 77
     6
 78
     2
 67
     7
 79
     3
170
     0
171
     0
290
     0
174
     0
 93
       13
 44
0.0
173
     0
291
     0
 45
0.0
  0
DICTIONARYVAR
  5
83
102
{ACAD_REACTORS
330
82
102
}
330
82
100
DictionaryVariables
280
     0
  1
1:1
  0
DICTIONARYVAR
  5
BC
102
{ACAD_REACTORS
330
82
102
}
330
82
100
DictionaryVariables
280
     0
  1
Standard
  0
DICTIONARYVAR
  5
BB
102
{ACAD_REACTORS
330
82
102
}
330
82
100
DictionaryVariables
280
     0
  1
Standard
  0
DICTIONARYVAR
  5
84
102
{ACAD_REACTORS
330
82
102
}
330
82
100
DictionaryVariables
280
     0
  1
2
  0
DICTIONARY
  5
B8
330
6C
100
AcDbDictionary
280
     1
281
     1
  3
ACAD_XREC_ROUNDTRIP
360
B9
  0
DICTIONARY
  5
B5
330
6A
100
AcDbDictionary
280
     1
281
     1
  3
ACAD_ROUNDTRIP_2008_TABLESTYLE_CELLSTYLEMAP
360
B6
  0
DICTIONARY
  5
8D
330
2F
100
AcDbDictionary
280
     1
281
     1
  3
ACAD_XREC_ROUNDTRIP
360
8E
  0
DICTIONARY
  5
93
330
32
100
AcDbDictionary
280
     1
281
     1
  3
ACAD_XREC_ROUNDTRIP
360
94
  0
DICTIONARY
  5
9B
330
36
100
AcDbDictionary
280
     1
281
     1
  3
ACAD_XREC_ROUNDTRIP
360
9C
  0
DICTIONARY
  5
A3
330
3A
100
AcDbDictionary
280
     1
281
     1
  3
ACAD_XREC_ROUNDTRIP
360
A4
  0
DICTIONARY
  5
97
330
34
100
AcDbDictionary
280
     1
281
     1
  3
ACAD_XREC_ROUNDTRIP
360
98
  0
DICTIONARY
  5
99
330
35
100
AcDbDictionary
280
     1
281
     1
  3
ACAD_XREC_ROUNDTRIP
360
9A
  0
DICTIONARY
  5
A9
330
3D
100
AcDbDictionary
280
     1
281
     1
  3
ACAD_XREC_ROUNDTRIP
360
AA
  0
DICTIONARY
  5
A1
330
39
100
AcDbDictionary
280
     1
281
     1
  3
ACAD_XREC_ROUNDTRIP
360
A2
  0
DICTIONARY
  5
85
330
2B
100
AcDbDictionary
280
     1
281
     1
  3
ACAD_XREC_ROUNDTRIP
360
86
  0
DICTIONARY
  5
87
330
2C
100
AcDbDictionary
280
     1
281
     1
  3
ACAD_XREC_ROUNDTRIP
360
88
  0
DICTIONARY
  5
89
330
2D
100
AcDbDictionary
280
     1
281
     1
  3
ACAD_XREC_ROUNDTRIP
360
8A
  0
DICTIONARY
  5
8B
330
2E
100
AcDbDictionary
280
     1
281
     1
  3
ACAD_XREC_ROUNDTRIP
360
8C
  0
DICTIONARY
  5
91
330
31
100
AcDbDictionary
280
     1
281
     1
  3
ACAD_XREC_ROUNDTRIP
360
92
  0
DICTIONARY
  5
A5
330
3B
100
AcDbDictionary
280
     1
281
     1
  3
ACAD_XREC_ROUNDTRIP
360
A6
  0
DICTIONARY
  5
9F
330
38
100
AcDbDictionary
280
     1
281
     1
  3
ACAD_XREC_ROUNDTRIP
360
A0
  0
DICTIONARY
  5
A7
330
3C
100
AcDbDictionary
280
     1
281
     1
  3
ACAD_XREC_ROUNDTRIP
360
A8
  0
DICTIONARY
  5
95
330
33
100
AcDbDictionary
280
     1
281
     1
  3
ACAD_XREC_ROUNDTRIP
360
96
  0
DICTIONARY
  5
B3
330
42
100
AcDbDictionary
280
     1
281
     1
  3
ACAD_XREC_ROUNDTRIP
360
B4
  0
DICTIONARY
  5
B1
330
41
100
AcDbDictionary
280
     1
281
     1
  3
ACAD_XREC_ROUNDTRIP
360
B2
  0
DICTIONARY
  5
AB
330
3E
100
AcDbDictionary
280
     1
281
     1
  3
ACAD_XREC_ROUNDTRIP
360
AC
  0
DICTIONARY
  5
AD
330
3F
100
AcDbDictionary
280
     1
281
     1
  3
ACAD_XREC_ROUNDTRIP
360
AE
  0
DICTIONARY
  5
9D
330
37
100
AcDbDictionary
280
     1
281
     1
  3
ACAD_XREC_ROUNDTRIP
360
9E
  0
DICTIONARY
  5
8F
330
30
100
AcDbDictionary
280
     1
281
     1
  3
ACAD_XREC_ROUNDTRIP
360
90
  0
DICTIONARY
  5
AF
330
40
100
AcDbDictionary
280
     1
281
     1
  3
ACAD_XREC_ROUNDTRIP
360
B0
  0
XRECORD
  5
B9
102
{ACAD_REACTORS
330
B8
102
}
330
B8
100
AcDbXrecord
280
     1
102
ACAD_ROUNDTRIP_2010_MLEADER_STYLE
  0
CELLSTYLEMAP
  5
B6
102
{ACAD_REACTORS
330
B5
102
}
330
B5
100
AcDbCellStyleMap
 90
        3
300
CELLSTYLE
  1
TABLEFORMAT_BEGIN
 90
        5
170
     1
 91
        0
 92
    32768
 62
   257
 93
        1
300
CONTENTFORMAT
  1
CONTENTFORMAT_BEGIN
 90
        0
 91
        0
 92
        4
 93
        0
300

 40
0.0
140
1.0
 94
        5
 62
     0
340
11
144
0.25
309
CONTENTFORMAT_END
171
     1
301
MARGIN
  1
CELLMARGIN_BEGIN
 40
0.06
 40
0.06
 40
0.06
 40
0.06
 40
0.06
 40
0.06
309
CELLMARGIN_END
 94
        6
 95
        1
302
GRIDFORMAT
  1
GRIDFORMAT_BEGIN
 90
        0
 91
        1
 62
     0
 92
       -2
340
14
 93
        0
 40
0.045
309
GRIDFORMAT_END
 95
        2
302
GRIDFORMAT
  1
GRIDFORMAT_BEGIN
 90
        0
 91
        1
 62
     0
 92
       -2
340
14
 93
        0
 40
0.045
309
GRIDFORMAT_END
 95
        4
302
GRIDFORMAT
  1
GRIDFORMAT_BEGIN
 90
        0
 91
        1
 62
     0
 92
       -2
340
14
 93
        0
 40
0.045
309
GRIDFORMAT_END
 95
        8
302
GRIDFORMAT
  1
GRIDFORMAT_BEGIN
 90
        0
 91
        1
 62
     0
 92
       -2
340
14
 93
        0
 40
0.045
309
GRIDFORMAT_END
 95
       16
302
GRIDFORMAT
  1
GRIDFORMAT_BEGIN
 90
        0
 91
        1
 62
     0
 92
       -2
340
14
 93
        0
 40
0.045
309
GRIDFORMAT_END
 95
       32
302
GRIDFORMAT
  1
GRIDFORMAT_BEGIN
 90
        0
 91
        1
 62
     0
 92
       -2
340
14
 93
        0
 40
0.045
309
GRIDFORMAT_END
309
TABLEFORMAT_END
  1
CELLSTYLE_BEGIN
 90
        1
 91
        1
300
_TITLE
309
CELLSTYLE_END
300
CELLSTYLE
  1
TABLEFORMAT_BEGIN
 90
        5
170
     1
 91
        0
 92
        0
 62
   257
 93
        1
300
CONTENTFORMAT
  1
CONTENTFORMAT_BEGIN
 90
        0
 91
        0
 92
        4
 93
        0
300

 40
0.0
140
1.0
 94
        5
 62
     0
340
11
144
0.18
309
CONTENTFORMAT_END
171
     1
301
MARGIN
  1
CELLMARGIN_BEGIN
 40
0.06
 40
0.06
 40
0.06
 40
0.06
 40
0.06
 40
0.06
309
CELLMARGIN_END
 94
        6
 95
        1
302
GRIDFORMAT
  1
GRIDFORMAT_BEGIN
 90
        0
 91
        1
 62
     0
 92
       -2
340
14
 93
        0
 40
0.045
309
GRIDFORMAT_END
 95
        2
302
GRIDFORMAT
  1
GRIDFORMAT_BEGIN
 90
        0
 91
        1
 62
     0
 92
       -2
340
14
 93
        0
 40
0.045
309
GRIDFORMAT_END
 95
        4
302
GRIDFORMAT
  1
GRIDFORMAT_BEGIN
 90
        0
 91
        1
 62
     0
 92
       -2
340
14
 93
        0
 40
0.045
309
GRIDFORMAT_END
 95
        8
302
GRIDFORMAT
  1
GRIDFORMAT_BEGIN
 90
        0
 91
        1
 62
     0
 92
       -2
340
14
 93
        0
 40
0.045
309
GRIDFORMAT_END
 95
       16
302
GRIDFORMAT
  1
GRIDFORMAT_BEGIN
 90
        0
 91
        1
 62
     0
 92
       -2
340
14
 93
        0
 40
0.045
309
GRIDFORMAT_END
 95
       32
302
GRIDFORMAT
  1
GRIDFORMAT_BEGIN
 90
        0
 91
        1
 62
     0
 92
       -2
340
14
 93
        0
 40
0.045
309
GRIDFORMAT_END
309
TABLEFORMAT_END
  1
CELLSTYLE_BEGIN
 90
        2
 91
        1
300
_HEADER
309
CELLSTYLE_END
300
CELLSTYLE
  1
TABLEFORMAT_BEGIN
 90
        5
170
     1
 91
        0
 92
        0
 62
   257
 93
        1
300
CONTENTFORMAT
  1
CONTENTFORMAT_BEGIN
 90
        0
 91
        0
 92
        4
 93
        0
300

 40
0.0
140
1.0
 94
        2
 62
     0
340
11
144
0.18
309
CONTENTFORMAT_END
171
     1
301
MARGIN
  1
CELLMARGIN_BEGIN
 40
0.06
 40
0.06
 40
0.06
 40
0.06
 40
0.06
 40
0.06
309
CELLMARGIN_END
 94
        6
 95
        1
302
GRIDFORMAT
  1
GRIDFORMAT_BEGIN
 90
        0
 91
        1
 62
     0
 92
       -2
340
14
 93
        0
 40
0.045
309
GRIDFORMAT_END
 95
        2
302
GRIDFORMAT
  1
GRIDFORMAT_BEGIN
 90
        0
 91
        1
 62
     0
 92
       -2
340
14
 93
        0
 40
0.045
309
GRIDFORMAT_END
 95
        4
302
GRIDFORMAT
  1
GRIDFORMAT_BEGIN
 90
        0
 91
        1
 62
     0
 92
       -2
340
14
 93
        0
 40
0.045
309
GRIDFORMAT_END
 95
        8
302
GRIDFORMAT
  1
GRIDFORMAT_BEGIN
 90
        0
 91
        1
 62
     0
 92
       -2
340
14
 93
        0
 40
0.045
309
GRIDFORMAT_END
 95
       16
302
GRIDFORMAT
  1
GRIDFORMAT_BEGIN
 90
        0
 91
        1
 62
     0
 92
       -2
340
14
 93
        0
 40
0.045
309
GRIDFORMAT_END
 95
       32
302
GRIDFORMAT
  1
GRIDFORMAT_BEGIN
 90
        0
 91
        1
 62
     0
 92
       -2
340
14
 93
        0
 40
0.045
309
GRIDFORMAT_END
309
TABLEFORMAT_END
  1
CELLSTYLE_BEGIN
 90
        3
 91
        2
300
_DATA
309
CELLSTYLE_END
  0
XRECORD
  5
8E
102
{ACAD_REACTORS
330
8D
102
}
330
8D
100
AcDbXrecord
280
     1
102
RTVSPropertyOp0
 70
     1
102
RTVSPropertyOp1
 70
     1
102
RTVSPropertyOp2
 70
     1
102
RTVSPropertyOp3
 70
     1
102
RTVSPropertyOp4
 70
     1
102
RTVSPropertyOp5
 70
     1
102
RTVSPropertyOp6
 70
     1
102
RTVSPropertyOp7
 70
     1
102
RTVSPropertyOp8
 70
     1
102
RTVSPropertyOp9
 70
     1
102
RTVSPropertyOp10
 70
     1
102
RTVSPropertyOp11
 70
     1
102
RTVSPropertyOp12
 70
     1
102
RTVSPropertyOp13
 70
     1
102
RTVSPropertyOp14
 70
     1
102
RTVSPropertyOp15
 70
     1
102
RTVSPropertyOp16
 70
     1
102
RTVSPropertyOp17
 70
     1
102
RTVSPropertyOp18
 70
     1
102
RTVSPropertyOp19
 70
     1
102
RTVSPropertyOp20
 70
     1
102
RTVSPropertyOp21
 70
     1
102
RTVSPropertyOp22
 70
     1
102
RTVSPropertyOp23
 70
     1
102
RTVSPropertyOp24
 70
     1
102
RTVSPropertyOp25
 70
     1
102
RTVSPropertyOp26
 70
     1
102
RTVSPropertyOp27
 70
     1
102
RTVSPropertyOp28
 70
     1
102
RTVSPropertyOp29
 70
     1
102
RTVSPropertyOp30
 70
     1
102
RTVSPropertyOp31
 70
     1
102
RTVSPropertyOp32
 70
     1
102
RTVSPropertyOp33
 70
     1
102
RTVSPropertyOp34
 70
     1
102
RTVSPropertyOp35
 70
     1
102
RTVSPropertyOp36
 70
     1
102
RTVSPropertyOp37
 70
     1
102
RTVSPropertyOp38
 70
     1
102
RTVSPropertyOp39
 70
     1
102
RTVSPropertyOp40
 70
     1
102
RTVSPropertyOp41
 70
     1
102
RTVSPropertyOp42
 70
     1
102
RTVSPropertyOp43
 70
     1
102
RTVSPropertyOp44
 70
     1
102
RTVSPropertyOp45
 70
     1
102
RTVSPropertyOp46
 70
     1
102
RTVSPropertyOp47
 70
     1
102
RTVSPropertyOp48
 70
     1
102
RTVSPropertyOp49
 70
     1
102
RTVSPropertyOp50
 70
     1
102
RTVSPropertyOp51
 70
     0
102
RTVSPropertyOp52
 70
     0
102
RTVSPropertyOp53
 70
     1
102
RTVSPropertyOp54
 70
     1
102
RTVSPropertyOp55
 70
     1
102
RTVSPropertyOp56
 70
     1
102
RTVSPropertyOp57
 70
     1
102
RTVSPost2010Prop28
280
     1
102
RTVSPost2010PropOp28
 70
     1
102
RTVSPost2010Prop29
280
     1
102
RTVSPost2010PropOp29
 70
     1
102
RTVSPost2010Prop30
280
     0
102
RTVSPost2010PropOp30
 70
     1
102
RTVSPost2010Prop31
280
     0
102
RTVSPost2010PropOp31
 70
     1
102
RTVSPost2010Prop32
280
     0
102
RTVSPost2010PropOp32
 70
     1
102
RTVSPost2010Prop33
280
     0
102
RTVSPost2010PropOp33
 70
     1
102
RTVSPost2010Prop34
280
     0
102
RTVSPost2010PropOp34
 70
     1
102
RTVSPost2010Prop35
280
     0
102
RTVSPost2010PropOp35
 70
     1
102
RTVSPost2010Prop36
280
     0
102
RTVSPost2010PropOp36
 70
     1
102
RTVSPost2010Prop37
 90
       50
102
RTVSPost2010PropOp37
 70
     1
102
RTVSPost2010Prop38
140
0.0
102
RTVSPost2010PropOp38
 70
     1
102
RTVSPost2010Prop39
140
1.0
102
RTVSPost2010PropOp39
 70
     1
102
RTVSPost2010Prop40
 90
        0
102
RTVSPost2010PropOp40
 70
     1
102
RTVSPost2010Prop41ColorIndex
 90
       18
102
RTVSPost2010Prop41ColorRGB
 90
        0
102
RTVSPost2010PropOp41
 70
     1
102
RTVSPost2010Prop42
 90
       50
102
RTVSPost2010PropOp42
 70
     1
102
RTVSPost2010Prop43
 90
        3
102
RTVSPost2010PropOp43
 70
     1
102
RTVSPost2010Prop44ColorIndex
 90
        5
102
RTVSPost2010Prop44ColorRGB
 90
      255
102
RTVSPost2010PropOp44
 70
     1
102
RTVSPost2010Prop45
280
     0
102
RTVSPost2010PropOp45
 70
     1
102
RTVSPost2010Prop46
 90
       50
102
RTVSPost2010PropOp46
 70
     1
102
RTVSPost2010Prop47
 90
       50
102
RTVSPost2010PropOp47
 70
     1
102
RTVSPost2010Prop48
 90
       50
102
RTVSPost2010PropOp48
 70
     1
102
RTVSPost2010Prop49
280
     0
102
RTVSPost2010PropOp49
 70
     1
102
RTVSPost2010Prop50
 90
       50
102
RTVSPost2010PropOp50
 70
     1
102
RTVSPost2010Prop51ColorIndex
 90
      256
102
RTVSPost2010Prop51ColorRGB
 90
-16777216
102
RTVSPost2010PropOp51
 70
     0
102
RTVSPost2010Prop52
140
1.0
102
RTVSPost2010PropOp52
 70
     0
102
RTVSPost2010Prop53
 90
        2
102
RTVSPost2010PropOp53
 70
     1
102
RTVSPost2010Prop54
  1
strokes_ogs.tif
102
RTVSPost2010PropOp54
 70
     1
102
RTVSPost2010Prop55
280
     0
102
RTVSPost2010PropOp55
 70
     1
102
RTVSPost2010Prop56
140
1.0
102
RTVSPost2010PropOp56
 70
     1
102
RTVSPost2010Prop57
140
1.0
102
RTVSPost2010PropOp57
 70
     1
  0
XRECORD
  5
94
102
{ACAD_REACTORS
330
93
102
}
330
93
100
AcDbXrecord
280
     1
102
RTVSPropertyOp0
 70
     1
102
RTVSPropertyOp1
 70
     1
102
RTVSPropertyOp2
 70
     1
102
RTVSPropertyOp3
 70
     1
102
RTVSPropertyOp4
 70
     1
102
RTVSPropertyOp5
 70
     1
102
RTVSPropertyOp6
 70
     1
102
RTVSPropertyOp7
 70
     1
102
RTVSPropertyOp8
 70
     1
102
RTVSPropertyOp9
 70
     1
102
RTVSPropertyOp10
 70
     1
102
RTVSPropertyOp11
 70
     1
102
RTVSPropertyOp12
 70
     1
102
RTVSPropertyOp13
 70
     1
102
RTVSPropertyOp14
 70
     1
102
RTVSPropertyOp15
 70
     1
102
RTVSPropertyOp16
 70
     1
102
RTVSPropertyOp17
 70
     1
102
RTVSPropertyOp18
 70
     1
102
RTVSPropertyOp19
 70
     1
102
RTVSPropertyOp20
 70
     1
102
RTVSPropertyOp21
 70
     1
102
RTVSPropertyOp22
 70
     1
102
RTVSPropertyOp23
 70
     1
102
RTVSPropertyOp24
 70
     1
102
RTVSPropertyOp25
 70
     1
102
RTVSPropertyOp26
 70
     1
102
RTVSPropertyOp27
 70
     1
102
RTVSPropertyOp28
 70
     1
102
RTVSPropertyOp29
 70
     1
102
RTVSPropertyOp30
 70
     1
102
RTVSPropertyOp31
 70
     1
102
RTVSPropertyOp32
 70
     1
102
RTVSPropertyOp33
 70
     1
102
RTVSPropertyOp34
 70
     1
102
RTVSPropertyOp35
 70
     1
102
RTVSPropertyOp36
 70
     1
102
RTVSPropertyOp37
 70
     1
102
RTVSPropertyOp38
 70
     1
102
RTVSPropertyOp39
 70
     1
102
RTVSPropertyOp40
 70
     1
102
RTVSPropertyOp41
 70
     1
102
RTVSPropertyOp42
 70
     1
102
RTVSPropertyOp43
 70
     1
102
RTVSPropertyOp44
 70
     1
102
RTVSPropertyOp45
 70
     1
102
RTVSPropertyOp46
 70
     1
102
RTVSPropertyOp47
 70
     1
102
RTVSPropertyOp48
 70
     1
102
RTVSPropertyOp49
 70
     1
102
RTVSPropertyOp50
 70
     1
102
RTVSPropertyOp51
 70
     0
102
RTVSPropertyOp52
 70
     0
102
RTVSPropertyOp53
 70
     1
102
RTVSPropertyOp54
 70
     1
102
RTVSPropertyOp55
 70
     1
102
RTVSPropertyOp56
 70
     1
102
RTVSPropertyOp57
 70
     1
102
RTVSPost2010Prop28
280
     0
102
RTVSPost2010PropOp28
 70
     1
102
RTVSPost2010Prop29
280
     1
102
RTVSPost2010PropOp29
 70
     1
102
RTVSPost2010Prop30
280
     1
102
RTVSPost2010PropOp30
 70
     1
102
RTVSPost2010Prop31
280
     0
102
RTVSPost2010PropOp31
 70
     1
102
RTVSPost2010Prop32
280
     0
102
RTVSPost2010PropOp32
 70
     1
102
RTVSPost2010Prop33
280
     0
102
RTVSPost2010PropOp33
 70
     1
102
RTVSPost2010Prop34
280
     0
102
RTVSPost2010PropOp34
 70
     1
102
RTVSPost2010Prop35
280
     0
102
RTVSPost2010PropOp35
 70
     1
102
RTVSPost2010Prop36
280
     0
102
RTVSPost2010PropOp36
 70
     1
102
RTVSPost2010Prop37
 90
       50
102
RTVSPost2010PropOp37
 70
     1
102
RTVSPost2010Prop38
140
0.0
102
RTVSPost2010PropOp38
 70
     1
102
RTVSPost2010Prop39
140
1.0
102
RTVSPost2010PropOp39
 70
     1
102
RTVSPost2010Prop40
 90
        0
102
RTVSPost2010PropOp40
 70
     1
102
RTVSPost2010Prop41ColorIndex
 90
       18
102
RTVSPost2010Prop41ColorRGB
 90
        0
102
RTVSPost2010PropOp41
 70
     1
102
RTVSPost2010Prop42
 90
       50
102
RTVSPost2010PropOp42
 70
     1
102
RTVSPost2010Prop43
 90
        3
102
RTVSPost2010PropOp43
 70
     1
102
RTVSPost2010Prop44ColorIndex
 90
        5
102
RTVSPost2010Prop44ColorRGB
 90
      255
102
RTVSPost2010PropOp44
 70
     1
102
RTVSPost2010Prop45
280
     0
102
RTVSPost2010PropOp45
 70
     1
102
RTVSPost2010Prop46
 90
       50
102
RTVSPost2010PropOp46
 70
     1
102
RTVSPost2010Prop47
 90
       50
102
RTVSPost2010PropOp47
 70
     1
102
RTVSPost2010Prop48
 90
       50
102
RTVSPost2010PropOp48
 70
     1
102
RTVSPost2010Prop49
280
     0
102
RTVSPost2010PropOp49
 70
     1
102
RTVSPost2010Prop50
 90
       50
102
RTVSPost2010PropOp50
 70
     1
102
RTVSPost2010Prop51ColorIndex
 90
      256
102
RTVSPost2010Prop51ColorRGB
 90
-16777216
102
RTVSPost2010PropOp51
 70
     0
102
RTVSPost2010Prop52
140
1.0
102
RTVSPost2010PropOp52
 70
     0
102
RTVSPost2010Prop53
 90
        2
102
RTVSPost2010PropOp53
 70
     1
102
RTVSPost2010Prop54
  1
strokes_ogs.tif
102
RTVSPost2010PropOp54
 70
     1
102
RTVSPost2010Prop55
280
     0
102
RTVSPost2010PropOp55
 70
     1
102
RTVSPost2010Prop56
140
1.0
102
RTVSPost2010PropOp56
 70
     1
102
RTVSPost2010Prop57
140
1.0
102
RTVSPost2010PropOp57
 70
     1
  0
XRECORD
  5
9C
102
{ACAD_REACTORS
330
9B
102
}
330
9B
100
AcDbXrecord
280
     1
102
RTVSPropertyOp0
 70
     1
102
RTVSPropertyOp1
 70
     1
102
RTVSPropertyOp2
 70
     1
102
RTVSPropertyOp3
 70
     1
102
RTVSPropertyOp4
 70
     1
102
RTVSPropertyOp5
 70
     1
102
RTVSPropertyOp6
 70
     1
102
RTVSPropertyOp7
 70
     1
102
RTVSPropertyOp8
 70
     1
102
RTVSPropertyOp9
 70
     1
102
RTVSPropertyOp10
 70
     1
102
RTVSPropertyOp11
 70
     1
102
RTVSPropertyOp12
 70
     1
102
RTVSPropertyOp13
 70
     1
102
RTVSPropertyOp14
 70
     1
102
RTVSPropertyOp15
 70
     1
102
RTVSPropertyOp16
 70
     1
102
RTVSPropertyOp17
 70
     1
102
RTVSPropertyOp18
 70
     1
102
RTVSPropertyOp19
 70
     1
102
RTVSPropertyOp20
 70
     1
102
RTVSPropertyOp21
 70
     1
102
RTVSPropertyOp22
 70
     1
102
RTVSPropertyOp23
 70
     1
102
RTVSPropertyOp24
 70
     1
102
RTVSPropertyOp25
 70
     1
102
RTVSPropertyOp26
 70
     1
102
RTVSPropertyOp27
 70
     1
102
RTVSPropertyOp28
 70
     1
102
RTVSPropertyOp29
 70
     1
102
RTVSPropertyOp30
 70
     1
102
RTVSPropertyOp31
 70
     1
102
RTVSPropertyOp32
 70
     1
102
RTVSPropertyOp33
 70
     1
102
RTVSPropertyOp34
 70
     1
102
RTVSPropertyOp35
 70
     1
102
RTVSPropertyOp36
 70
     1
102
RTVSPropertyOp37
 70
     1
102
RTVSPropertyOp38
 70
     1
102
RTVSPropertyOp39
 70
     1
102
RTVSPropertyOp40
 70
     1
102
RTVSPropertyOp41
 70
     1
102
RTVSPropertyOp42
 70
     1
102
RTVSPropertyOp43
 70
     1
102
RTVSPropertyOp44
 70
     1
102
RTVSPropertyOp45
 70
     1
102
RTVSPropertyOp46
 70
     1
102
RTVSPropertyOp47
 70
     1
102
RTVSPropertyOp48
 70
     1
102
RTVSPropertyOp49
 70
     1
102
RTVSPropertyOp50
 70
     1
102
RTVSPropertyOp51
 70
     0
102
RTVSPropertyOp52
 70
     0
102
RTVSPropertyOp53
 70
     1
102
RTVSPropertyOp54
 70
     1
102
RTVSPropertyOp55
 70
     1
102
RTVSPropertyOp56
 70
     1
102
RTVSPropertyOp57
 70
     1
102
RTVSPost2010Prop28
280
     0
102
RTVSPost2010PropOp28
 70
     1
102
RTVSPost2010Prop29
280
     1
102
RTVSPost2010PropOp29
 70
     1
102
RTVSPost2010Prop30
280
     1
102
RTVSPost2010PropOp30
 70
     1
102
RTVSPost2010Prop31
280
     0
102
RTVSPost2010PropOp31
 70
     1
102
RTVSPost2010Prop32
280
     0
102
RTVSPost2010PropOp32
 70
     1
102
RTVSPost2010Prop33
280
     0
102
RTVSPost2010PropOp33
 70
     1
102
RTVSPost2010Prop34
280
     0
102
RTVSPost2010PropOp34
 70
     1
102
RTVSPost2010Prop35
280
     0
102
RTVSPost2010PropOp35
 70
     1
102
RTVSPost2010Prop36
280
     0
102
RTVSPost2010PropOp36
 70
     1
102
RTVSPost2010Prop37
 90
       50
102
RTVSPost2010PropOp37
 70
     1
102
RTVSPost2010Prop38
140
0.0
102
RTVSPost2010PropOp38
 70
     1
102
RTVSPost2010Prop39
140
1.0
102
RTVSPost2010PropOp39
 70
     1
102
RTVSPost2010Prop40
 90
        0
102
RTVSPost2010PropOp40
 70
     1
102
RTVSPost2010Prop41ColorIndex
 90
       18
102
RTVSPost2010Prop41ColorRGB
 90
        0
102
RTVSPost2010PropOp41
 70
     1
102
RTVSPost2010Prop42
 90
       50
102
RTVSPost2010PropOp42
 70
     1
102
RTVSPost2010Prop43
 90
        3
102
RTVSPost2010PropOp43
 70
     1
102
RTVSPost2010Prop44ColorIndex
 90
        5
102
RTVSPost2010Prop44ColorRGB
 90
      255
102
RTVSPost2010PropOp44
 70
     1
102
RTVSPost2010Prop45
280
     0
102
RTVSPost2010PropOp45
 70
     1
102
RTVSPost2010Prop46
 90
       50
102
RTVSPost2010PropOp46
 70
     1
102
RTVSPost2010Prop47
 90
       50
102
RTVSPost2010PropOp47
 70
     1
102
RTVSPost2010Prop48
 90
       50
102
RTVSPost2010PropOp48
 70
     1
102
RTVSPost2010Prop49
280
     0
102
RTVSPost2010PropOp49
 70
     1
102
RTVSPost2010Prop50
 90
       50
102
RTVSPost2010PropOp50
 70
     1
102
RTVSPost2010Prop51ColorIndex
 90
      256
102
RTVSPost2010Prop51ColorRGB
 90
-16777216
102
RTVSPost2010PropOp51
 70
     0
102
RTVSPost2010Prop52
140
1.0
102
RTVSPost2010PropOp52
 70
     0
102
RTVSPost2010Prop53
 90
        2
102
RTVSPost2010PropOp53
 70
     1
102
RTVSPost2010Prop54
  1
strokes_ogs.tif
102
RTVSPost2010PropOp54
 70
     1
102
RTVSPost2010Prop55
280
     0
102
RTVSPost2010PropOp55
 70
     1
102
RTVSPost2010Prop56
140
1.0
102
RTVSPost2010PropOp56
 70
     1
102
RTVSPost2010Prop57
140
1.0
102
RTVSPost2010PropOp57
 70
     1
  0
XRECORD
  5
A4
102
{ACAD_REACTORS
330
A3
102
}
330
A3
100
AcDbXrecord
280
     1
102
RTVSPropertyOp0
 70
     1
102
RTVSPropertyOp1
 70
     1
102
RTVSPropertyOp2
 70
     1
102
RTVSPropertyOp3
 70
     1
102
RTVSPropertyOp4
 70
     1
102
RTVSPropertyOp5
 70
     1
102
RTVSPropertyOp6
 70
     1
102
RTVSPropertyOp7
 70
     1
102
RTVSPropertyOp8
 70
     1
102
RTVSPropertyOp9
 70
     1
102
RTVSPropertyOp10
 70
     1
102
RTVSPropertyOp11
 70
     1
102
RTVSPropertyOp12
 70
     1
102
RTVSPropertyOp13
 70
     1
102
RTVSPropertyOp14
 70
     1
102
RTVSPropertyOp15
 70
     1
102
RTVSPropertyOp16
 70
     1
102
RTVSPropertyOp17
 70
     1
102
RTVSPropertyOp18
 70
     1
102
RTVSPropertyOp19
 70
     1
102
RTVSPropertyOp20
 70
     1
102
RTVSPropertyOp21
 70
     1
102
RTVSPropertyOp22
 70
     1
102
RTVSPropertyOp23
 70
     1
102
RTVSPropertyOp24
 70
     1
102
RTVSPropertyOp25
 70
     1
102
RTVSPropertyOp26
 70
     1
102
RTVSPropertyOp27
 70
     1
102
RTVSPropertyOp28
 70
     1
102
RTVSPropertyOp29
 70
     1
102
RTVSPropertyOp30
 70
     1
102
RTVSPropertyOp31
 70
     1
102
RTVSPropertyOp32
 70
     1
102
RTVSPropertyOp33
 70
     1
102
RTVSPropertyOp34
 70
     1
102
RTVSPropertyOp35
 70
     1
102
RTVSPropertyOp36
 70
     1
102
RTVSPropertyOp37
 70
     1
102
RTVSPropertyOp38
 70
     1
102
RTVSPropertyOp39
 70
     1
102
RTVSPropertyOp40
 70
     1
102
RTVSPropertyOp41
 70
     1
102
RTVSPropertyOp42
 70
     1
102
RTVSPropertyOp43
 70
     1
102
RTVSPropertyOp44
 70
     1
102
RTVSPropertyOp45
 70
     1
102
RTVSPropertyOp46
 70
     1
102
RTVSPropertyOp47
 70
     1
102
RTVSPropertyOp48
 70
     1
102
RTVSPropertyOp49
 70
     1
102
RTVSPropertyOp50
 70
     1
102
RTVSPropertyOp51
 70
     0
102
RTVSPropertyOp52
 70
     0
102
RTVSPropertyOp53
 70
     1
102
RTVSPropertyOp54
 70
     1
102
RTVSPropertyOp55
 70
     1
102
RTVSPropertyOp56
 70
     1
102
RTVSPropertyOp57
 70
     1
102
RTVSPost2010Prop28
280
     0
102
RTVSPost2010PropOp28
 70
     1
102
RTVSPost2010Prop29
280
     1
102
RTVSPost2010PropOp29
 70
     1
102
RTVSPost2010Prop30
280
     1
102
RTVSPost2010PropOp30
 70
     1
102
RTVSPost2010Prop31
280
     0
102
RTVSPost2010PropOp31
 70
     1
102
RTVSPost2010Prop32
280
     0
102
RTVSPost2010PropOp32
 70
     1
102
RTVSPost2010Prop33
280
     0
102
RTVSPost2010PropOp33
 70
     1
102
RTVSPost2010Prop34
280
     0
102
RTVSPost2010PropOp34
 70
     1
102
RTVSPost2010Prop35
280
     0
102
RTVSPost2010PropOp35
 70
     1
102
RTVSPost2010Prop36
280
     0
102
RTVSPost2010PropOp36
 70
     1
102
RTVSPost2010Prop37
 90
       50
102
RTVSPost2010PropOp37
 70
     1
102
RTVSPost2010Prop38
140
0.0
102
RTVSPost2010PropOp38
 70
     1
102
RTVSPost2010Prop39
140
1.0
102
RTVSPost2010PropOp39
 70
     1
102
RTVSPost2010Prop40
 90
        0
102
RTVSPost2010PropOp40
 70
     1
102
RTVSPost2010Prop41ColorIndex
 90
       18
102
RTVSPost2010Prop41ColorRGB
 90
        0
102
RTVSPost2010PropOp41
 70
     1
102
RTVSPost2010Prop42
 90
       50
102
RTVSPost2010PropOp42
 70
     1
102
RTVSPost2010Prop43
 90
        3
102
RTVSPost2010PropOp43
 70
     1
102
RTVSPost2010Prop44ColorIndex
 90
        5
102
RTVSPost2010Prop44ColorRGB
 90
      255
102
RTVSPost2010PropOp44
 70
     1
102
RTVSPost2010Prop45
280
     0
102
RTVSPost2010PropOp45
 70
     1
102
RTVSPost2010Prop46
 90
       50
102
RTVSPost2010PropOp46
 70
     1
102
RTVSPost2010Prop47
 90
       50
102
RTVSPost2010PropOp47
 70
     1
102
RTVSPost2010Prop48
 90
       50
102
RTVSPost2010PropOp48
 70
     1
102
RTVSPost2010Prop49
280
     0
102
RTVSPost2010PropOp49
 70
     1
102
RTVSPost2010Prop50
 90
       50
102
RTVSPost2010PropOp50
 70
     1
102
RTVSPost2010Prop51ColorIndex
 90
      256
102
RTVSPost2010Prop51ColorRGB
 90
-16777216
102
RTVSPost2010PropOp51
 70
     0
102
RTVSPost2010Prop52
140
1.0
102
RTVSPost2010PropOp52
 70
     0
102
RTVSPost2010Prop53
 90
        2
102
RTVSPost2010PropOp53
 70
     1
102
RTVSPost2010Prop54
  1
strokes_ogs.tif
102
RTVSPost2010PropOp54
 70
     1
102
RTVSPost2010Prop55
280
     0
102
RTVSPost2010PropOp55
 70
     1
102
RTVSPost2010Prop56
140
1.0
102
RTVSPost2010PropOp56
 70
     1
102
RTVSPost2010Prop57
140
1.0
102
RTVSPost2010PropOp57
 70
     1
  0
XRECORD
  5
98
102
{ACAD_REACTORS
330
97
102
}
330
97
100
AcDbXrecord
280
     1
102
RTVSPropertyOp0
 70
     1
102
RTVSPropertyOp1
 70
     1
102
RTVSPropertyOp2
 70
     1
102
RTVSPropertyOp3
 70
     1
102
RTVSPropertyOp4
 70
     1
102
RTVSPropertyOp5
 70
     1
102
RTVSPropertyOp6
 70
     1
102
RTVSPropertyOp7
 70
     1
102
RTVSPropertyOp8
 70
     1
102
RTVSPropertyOp9
 70
     1
102
RTVSPropertyOp10
 70
     1
102
RTVSPropertyOp11
 70
     1
102
RTVSPropertyOp12
 70
     1
102
RTVSPropertyOp13
 70
     1
102
RTVSPropertyOp14
 70
     1
102
RTVSPropertyOp15
 70
     1
102
RTVSPropertyOp16
 70
     1
102
RTVSPropertyOp17
 70
     1
102
RTVSPropertyOp18
 70
     1
102
RTVSPropertyOp19
 70
     1
102
RTVSPropertyOp20
 70
     1
102
RTVSPropertyOp21
 70
     1
102
RTVSPropertyOp22
 70
     1
102
RTVSPropertyOp23
 70
     1
102
RTVSPropertyOp24
 70
     1
102
RTVSPropertyOp25
 70
     1
102
RTVSPropertyOp26
 70
     1
102
RTVSPropertyOp27
 70
     1
102
RTVSPropertyOp28
 70
     1
102
RTVSPropertyOp29
 70
     1
102
RTVSPropertyOp30
 70
     1
102
RTVSPropertyOp31
 70
     1
102
RTVSPropertyOp32
 70
     1
102
RTVSPropertyOp33
 70
     1
102
RTVSPropertyOp34
 70
     1
102
RTVSPropertyOp35
 70
     1
102
RTVSPropertyOp36
 70
     1
102
RTVSPropertyOp37
 70
     1
102
RTVSPropertyOp38
 70
     1
102
RTVSPropertyOp39
 70
     1
102
RTVSPropertyOp40
 70
     1
102
RTVSPropertyOp41
 70
     1
102
RTVSPropertyOp42
 70
     1
102
RTVSPropertyOp43
 70
     1
102
RTVSPropertyOp44
 70
     1
102
RTVSPropertyOp45
 70
     1
102
RTVSPropertyOp46
 70
     1
102
RTVSPropertyOp47
 70
     1
102
RTVSPropertyOp48
 70
     1
102
RTVSPropertyOp49
 70
     1
102
RTVSPropertyOp50
 70
     1
102
RTVSPropertyOp51
 70
     0
102
RTVSPropertyOp52
 70
     0
102
RTVSPropertyOp53
 70
     1
102
RTVSPropertyOp54
 70
     1
102
RTVSPropertyOp55
 70
     1
102
RTVSPropertyOp56
 70
     1
102
RTVSPropertyOp57
 70
     1
102
RTVSPost2010Prop28
280
     0
102
RTVSPost2010PropOp28
 70
     1
102
RTVSPost2010Prop29
280
     1
102
RTVSPost2010PropOp29
 70
     1
102
RTVSPost2010Prop30
280
     1
102
RTVSPost2010PropOp30
 70
     1
102
RTVSPost2010Prop31
280
     0
102
RTVSPost2010PropOp31
 70
     1
102
RTVSPost2010Prop32
280
     0
102
RTVSPost2010PropOp32
 70
     1
102
RTVSPost2010Prop33
280
     0
102
RTVSPost2010PropOp33
 70
     1
102
RTVSPost2010Prop34
280
     0
102
RTVSPost2010PropOp34
 70
     1
102
RTVSPost2010Prop35
280
     0
102
RTVSPost2010PropOp35
 70
     1
102
RTVSPost2010Prop36
280
     0
102
RTVSPost2010PropOp36
 70
     1
102
RTVSPost2010Prop37
 90
       50
102
RTVSPost2010PropOp37
 70
     1
102
RTVSPost2010Prop38
140
0.0
102
RTVSPost2010PropOp38
 70
     1
102
RTVSPost2010Prop39
140
1.0
102
RTVSPost2010PropOp39
 70
     1
102
RTVSPost2010Prop40
 90
        0
102
RTVSPost2010PropOp40
 70
     1
102
RTVSPost2010Prop41ColorIndex
 90
       18
102
RTVSPost2010Prop41ColorRGB
 90
        0
102
RTVSPost2010PropOp41
 70
     1
102
RTVSPost2010Prop42
 90
       50
102
RTVSPost2010PropOp42
 70
     1
102
RTVSPost2010Prop43
 90
        3
102
RTVSPost2010PropOp43
 70
     1
102
RTVSPost2010Prop44ColorIndex
 90
        5
102
RTVSPost2010Prop44ColorRGB
 90
      255
102
RTVSPost2010PropOp44
 70
     1
102
RTVSPost2010Prop45
280
     0
102
RTVSPost2010PropOp45
 70
     1
102
RTVSPost2010Prop46
 90
       50
102
RTVSPost2010PropOp46
 70
     1
102
RTVSPost2010Prop47
 90
       50
102
RTVSPost2010PropOp47
 70
     1
102
RTVSPost2010Prop48
 90
       50
102
RTVSPost2010PropOp48
 70
     1
102
RTVSPost2010Prop49
280
     0
102
RTVSPost2010PropOp49
 70
     1
102
RTVSPost2010Prop50
 90
       50
102
RTVSPost2010PropOp50
 70
     1
102
RTVSPost2010Prop51ColorIndex
 90
      256
102
RTVSPost2010Prop51ColorRGB
 90
-16777216
102
RTVSPost2010PropOp51
 70
     0
102
RTVSPost2010Prop52
140
1.0
102
RTVSPost2010PropOp52
 70
     0
102
RTVSPost2010Prop53
 90
        2
102
RTVSPost2010PropOp53
 70
     1
102
RTVSPost2010Prop54
  1
strokes_ogs.tif
102
RTVSPost2010PropOp54
 70
     1
102
RTVSPost2010Prop55
280
     0
102
RTVSPost2010PropOp55
 70
     1
102
RTVSPost2010Prop56
140
1.0
102
RTVSPost2010PropOp56
 70
     1
102
RTVSPost2010Prop57
140
1.0
102
RTVSPost2010PropOp57
 70
     1
  0
XRECORD
  5
9A
102
{ACAD_REACTORS
330
99
102
}
330
99
100
AcDbXrecord
280
     1
102
RTVSPropertyOp0
 70
     1
102
RTVSPropertyOp1
 70
     1
102
RTVSPropertyOp2
 70
     1
102
RTVSPropertyOp3
 70
     1
102
RTVSPropertyOp4
 70
     1
102
RTVSPropertyOp5
 70
     1
102
RTVSPropertyOp6
 70
     1
102
RTVSPropertyOp7
 70
     1
102
RTVSPropertyOp8
 70
     1
102
RTVSPropertyOp9
 70
     1
102
RTVSPropertyOp10
 70
     1
102
RTVSPropertyOp11
 70
     1
102
RTVSPropertyOp12
 70
     1
102
RTVSPropertyOp13
 70
     1
102
RTVSPropertyOp14
 70
     1
102
RTVSPropertyOp15
 70
     1
102
RTVSPropertyOp16
 70
     1
102
RTVSPropertyOp17
 70
     1
102
RTVSPropertyOp18
 70
     1
102
RTVSPropertyOp19
 70
     1
102
RTVSPropertyOp20
 70
     1
102
RTVSPropertyOp21
 70
     1
102
RTVSPropertyOp22
 70
     1
102
RTVSPropertyOp23
 70
     1
102
RTVSPropertyOp24
 70
     1
102
RTVSPropertyOp25
 70
     1
102
RTVSPropertyOp26
 70
     1
102
RTVSPropertyOp27
 70
     1
102
RTVSPropertyOp28
 70
     1
102
RTVSPropertyOp29
 70
     1
102
RTVSPropertyOp30
 70
     1
102
RTVSPropertyOp31
 70
     1
102
RTVSPropertyOp32
 70
     1
102
RTVSPropertyOp33
 70
     1
102
RTVSPropertyOp34
 70
     1
102
RTVSPropertyOp35
 70
     1
102
RTVSPropertyOp36
 70
     1
102
RTVSPropertyOp37
 70
     1
102
RTVSPropertyOp38
 70
     1
102
RTVSPropertyOp39
 70
     1
102
RTVSPropertyOp40
 70
     1
102
RTVSPropertyOp41
 70
     1
102
RTVSPropertyOp42
 70
     1
102
RTVSPropertyOp43
 70
     1
102
RTVSPropertyOp44
 70
     1
102
RTVSPropertyOp45
 70
     1
102
RTVSPropertyOp46
 70
     1
102
RTVSPropertyOp47
 70
     1
102
RTVSPropertyOp48
 70
     1
102
RTVSPropertyOp49
 70
     1
102
RTVSPropertyOp50
 70
     1
102
RTVSPropertyOp51
 70
     0
102
RTVSPropertyOp52
 70
     0
102
RTVSPropertyOp53
 70
     1
102
RTVSPropertyOp54
 70
     1
102
RTVSPropertyOp55
 70
     1
102
RTVSPropertyOp56
 70
     1
102
RTVSPropertyOp57
 70
     1
102
RTVSPost2010Prop28
280
     0
102
RTVSPost2010PropOp28
 70
     1
102
RTVSPost2010Prop29
280
     1
102
RTVSPost2010PropOp29
 70
     1
102
RTVSPost2010Prop30
280
     1
102
RTVSPost2010PropOp30
 70
     1
102
RTVSPost2010Prop31
280
     0
102
RTVSPost2010PropOp31
 70
     1
102
RTVSPost2010Prop32
280
     0
102
RTVSPost2010PropOp32
 70
     1
102
RTVSPost2010Prop33
280
     0
102
RTVSPost2010PropOp33
 70
     1
102
RTVSPost2010Prop34
280
     0
102
RTVSPost2010PropOp34
 70
     1
102
RTVSPost2010Prop35
280
     0
102
RTVSPost2010PropOp35
 70
     1
102
RTVSPost2010Prop36
280
     0
102
RTVSPost2010PropOp36
 70
     1
102
RTVSPost2010Prop37
 90
       50
102
RTVSPost2010PropOp37
 70
     1
102
RTVSPost2010Prop38
140
0.0
102
RTVSPost2010PropOp38
 70
     1
102
RTVSPost2010Prop39
140
1.0
102
RTVSPost2010PropOp39
 70
     1
102
RTVSPost2010Prop40
 90
        0
102
RTVSPost2010PropOp40
 70
     1
102
RTVSPost2010Prop41ColorIndex
 90
       18
102
RTVSPost2010Prop41ColorRGB
 90
        0
102
RTVSPost2010PropOp41
 70
     1
102
RTVSPost2010Prop42
 90
       50
102
RTVSPost2010PropOp42
 70
     1
102
RTVSPost2010Prop43
 90
        3
102
RTVSPost2010PropOp43
 70
     1
102
RTVSPost2010Prop44ColorIndex
 90
        5
102
RTVSPost2010Prop44ColorRGB
 90
      255
102
RTVSPost2010PropOp44
 70
     1
102
RTVSPost2010Prop45
280
     0
102
RTVSPost2010PropOp45
 70
     1
102
RTVSPost2010Prop46
 90
       50
102
RTVSPost2010PropOp46
 70
     1
102
RTVSPost2010Prop47
 90
       50
102
RTVSPost2010PropOp47
 70
     1
102
RTVSPost2010Prop48
 90
       50
102
RTVSPost2010PropOp48
 70
     1
102
RTVSPost2010Prop49
280
     0
102
RTVSPost2010PropOp49
 70
     1
102
RTVSPost2010Prop50
 90
       50
102
RTVSPost2010PropOp50
 70
     1
102
RTVSPost2010Prop51ColorIndex
 90
      256
102
RTVSPost2010Prop51ColorRGB
 90
-16777216
102
RTVSPost2010PropOp51
 70
     0
102
RTVSPost2010Prop52
140
1.0
102
RTVSPost2010PropOp52
 70
     0
102
RTVSPost2010Prop53
 90
        2
102
RTVSPost2010PropOp53
 70
     1
102
RTVSPost2010Prop54
  1
strokes_ogs.tif
102
RTVSPost2010PropOp54
 70
     1
102
RTVSPost2010Prop55
280
     0
102
RTVSPost2010PropOp55
 70
     1
102
RTVSPost2010Prop56
140
1.0
102
RTVSPost2010PropOp56
 70
     1
102
RTVSPost2010Prop57
140
1.0
102
RTVSPost2010PropOp57
 70
     1
  0
XRECORD
  5
AA
102
{ACAD_REACTORS
330
A9
102
}
330
A9
100
AcDbXrecord
280
     1
102
RTVSPropertyOp0
 70
     0
102
RTVSPropertyOp1
 70
     0
102
RTVSPropertyOp2
 70
     0
102
RTVSPropertyOp3
 70
     0
102
RTVSPropertyOp4
 70
     0
102
RTVSPropertyOp5
 70
     0
102
RTVSPropertyOp6
 70
     0
102
RTVSPropertyOp7
 70
     0
102
RTVSPropertyOp8
 70
     0
102
RTVSPropertyOp9
 70
     0
102
RTVSPropertyOp10
 70
     0
102
RTVSPropertyOp11
 70
     0
102
RTVSPropertyOp12
 70
     0
102
RTVSPropertyOp13
 70
     0
102
RTVSPropertyOp14
 70
     2
102
RTVSPropertyOp15
 70
     0
102
RTVSPropertyOp16
 70
     0
102
RTVSPropertyOp17
 70
     0
102
RTVSPropertyOp18
 70
     0
102
RTVSPropertyOp19
 70
     0
102
RTVSPropertyOp20
 70
     0
102
RTVSPropertyOp21
 70
     0
102
RTVSPropertyOp22
 70
     0
102
RTVSPropertyOp23
 70
     0
102
RTVSPropertyOp24
 70
     0
102
RTVSPropertyOp25
 70
     0
102
RTVSPropertyOp26
 70
     0
102
RTVSPropertyOp27
 70
     0
102
RTVSPropertyOp28
 70
     0
102
RTVSPropertyOp29
 70
     0
102
RTVSPropertyOp30
 70
     0
102
RTVSPropertyOp31
 70
     0
102
RTVSPropertyOp32
 70
     0
102
RTVSPropertyOp33
 70
     0
102
RTVSPropertyOp34
 70
     0
102
RTVSPropertyOp35
 70
     0
102
RTVSPropertyOp36
 70
     0
102
RTVSPropertyOp37
 70
     0
102
RTVSPropertyOp38
 70
     0
102
RTVSPropertyOp39
 70
     0
102
RTVSPropertyOp40
 70
     0
102
RTVSPropertyOp41
 70
     0
102
RTVSPropertyOp42
 70
     0
102
RTVSPropertyOp43
 70
     0
102
RTVSPropertyOp44
 70
     0
102
RTVSPropertyOp45
 70
     0
102
RTVSPropertyOp46
 70
     0
102
RTVSPropertyOp47
 70
     0
102
RTVSPropertyOp48
 70
     0
102
RTVSPropertyOp49
 70
     0
102
RTVSPropertyOp50
 70
     0
102
RTVSPropertyOp51
 70
     0
102
RTVSPropertyOp52
 70
     0
102
RTVSPropertyOp53
 70
     0
102
RTVSPropertyOp54
 70
     0
102
RTVSPropertyOp55
 70
     0
102
RTVSPropertyOp56
 70
     0
102
RTVSPropertyOp57
 70
     0
102
RTVSPost2010Prop28
280
     0
102
RTVSPost2010PropOp28
 70
     0
102
RTVSPost2010Prop29
280
     1
102
RTVSPost2010PropOp29
 70
     0
102
RTVSPost2010Prop30
280
     1
102
RTVSPost2010PropOp30
 70
     0
102
RTVSPost2010Prop31
280
     0
102
RTVSPost2010PropOp31
 70
     0
102
RTVSPost2010Prop32
280
     0
102
RTVSPost2010PropOp32
 70
     0
102
RTVSPost2010Prop33
280
     0
102
RTVSPost2010PropOp33
 70
     0
102
RTVSPost2010Prop34
280
     0
102
RTVSPost2010PropOp34
 70
     0
102
RTVSPost2010Prop35
280
     0
102
RTVSPost2010PropOp35
 70
     0
102
RTVSPost2010Prop36
280
     0
102
RTVSPost2010PropOp36
 70
     0
102
RTVSPost2010Prop37
 90
       50
102
RTVSPost2010PropOp37
 70
     0
102
RTVSPost2010Prop38
140
0.0
102
RTVSPost2010PropOp38
 70
     0
102
RTVSPost2010Prop39
140
1.0
102
RTVSPost2010PropOp39
 70
     0
102
RTVSPost2010Prop40
 90
        0
102
RTVSPost2010PropOp40
 70
     0
102
RTVSPost2010Prop41ColorIndex
 90
       18
102
RTVSPost2010Prop41ColorRGB
 90
        0
102
RTVSPost2010PropOp41
 70
     0
102
RTVSPost2010Prop42
 90
       50
102
RTVSPost2010PropOp42
 70
     0
102
RTVSPost2010Prop43
 90
        3
102
RTVSPost2010PropOp43
 70
     0
102
RTVSPost2010Prop44ColorIndex
 90
        5
102
RTVSPost2010Prop44ColorRGB
 90
      255
102
RTVSPost2010PropOp44
 70
     0
102
RTVSPost2010Prop45
280
     0
102
RTVSPost2010PropOp45
 70
     0
102
RTVSPost2010Prop46
 90
       50
102
RTVSPost2010PropOp46
 70
     0
102
RTVSPost2010Prop47
 90
       50
102
RTVSPost2010PropOp47
 70
     0
102
RTVSPost2010Prop48
 90
       50
102
RTVSPost2010PropOp48
 70
     0
102
RTVSPost2010Prop49
280
     0
102
RTVSPost2010PropOp49
 70
     0
102
RTVSPost2010Prop50
 90
       50
102
RTVSPost2010PropOp50
 70
     0
102
RTVSPost2010Prop51ColorIndex
 90
      256
102
RTVSPost2010Prop51ColorRGB
 90
-16777216
102
RTVSPost2010PropOp51
 70
     0
102
RTVSPost2010Prop52
140
1.0
102
RTVSPost2010PropOp52
 70
     0
102
RTVSPost2010Prop53
 90
        2
102
RTVSPost2010PropOp53
 70
     0
102
RTVSPost2010Prop54
  1
strokes_ogs.tif
102
RTVSPost2010PropOp54
 70
     0
102
RTVSPost2010Prop55
280
     0
102
RTVSPost2010PropOp55
 70
     0
102
RTVSPost2010Prop56
140
1.0
102
RTVSPost2010PropOp56
 70
     0
102
RTVSPost2010Prop57
140
1.0
102
RTVSPost2010PropOp57
 70
     0
  0
XRECORD
  5
A2
102
{ACAD_REACTORS
330
A1
102
}
330
A1
100
AcDbXrecord
280
     1
102
RTVSPropertyOp0
 70
     1
102
RTVSPropertyOp1
 70
     1
102
RTVSPropertyOp2
 70
     1
102
RTVSPropertyOp3
 70
     1
102
RTVSPropertyOp4
 70
     1
102
RTVSPropertyOp5
 70
     1
102
RTVSPropertyOp6
 70
     1
102
RTVSPropertyOp7
 70
     1
102
RTVSPropertyOp8
 70
     1
102
RTVSPropertyOp9
 70
     1
102
RTVSPropertyOp10
 70
     1
102
RTVSPropertyOp11
 70
     1
102
RTVSPropertyOp12
 70
     1
102
RTVSPropertyOp13
 70
     1
102
RTVSPropertyOp14
 70
     1
102
RTVSPropertyOp15
 70
     1
102
RTVSPropertyOp16
 70
     1
102
RTVSPropertyOp17
 70
     1
102
RTVSPropertyOp18
 70
     1
102
RTVSPropertyOp19
 70
     1
102
RTVSPropertyOp20
 70
     1
102
RTVSPropertyOp21
 70
     1
102
RTVSPropertyOp22
 70
     1
102
RTVSPropertyOp23
 70
     1
102
RTVSPropertyOp24
 70
     1
102
RTVSPropertyOp25
 70
     1
102
RTVSPropertyOp26
 70
     1
102
RTVSPropertyOp27
 70
     1
102
RTVSPropertyOp28
 70
     1
102
RTVSPropertyOp29
 70
     1
102
RTVSPropertyOp30
 70
     1
102
RTVSPropertyOp31
 70
     1
102
RTVSPropertyOp32
 70
     1
102
RTVSPropertyOp33
 70
     1
102
RTVSPropertyOp34
 70
     1
102
RTVSPropertyOp35
 70
     1
102
RTVSPropertyOp36
 70
     1
102
RTVSPropertyOp37
 70
     1
102
RTVSPropertyOp38
 70
     1
102
RTVSPropertyOp39
 70
     1
102
RTVSPropertyOp40
 70
     1
102
RTVSPropertyOp41
 70
     1
102
RTVSPropertyOp42
 70
     1
102
RTVSPropertyOp43
 70
     1
102
RTVSPropertyOp44
 70
     1
102
RTVSPropertyOp45
 70
     1
102
RTVSPropertyOp46
 70
     1
102
RTVSPropertyOp47
 70
     1
102
RTVSPropertyOp48
 70
     1
102
RTVSPropertyOp49
 70
     1
102
RTVSPropertyOp50
 70
     1
102
RTVSPropertyOp51
 70
     0
102
RTVSPropertyOp52
 70
     0
102
RTVSPropertyOp53
 70
     1
102
RTVSPropertyOp54
 70
     1
102
RTVSPropertyOp55
 70
     1
102
RTVSPropertyOp56
 70
     1
102
RTVSPropertyOp57
 70
     1
102
RTVSPost2010Prop28
280
     0
102
RTVSPost2010PropOp28
 70
     1
102
RTVSPost2010Prop29
280
     1
102
RTVSPost2010PropOp29
 70
     1
102
RTVSPost2010Prop30
280
     1
102
RTVSPost2010PropOp30
 70
     1
102
RTVSPost2010Prop31
280
     0
102
RTVSPost2010PropOp31
 70
     1
102
RTVSPost2010Prop32
280
     0
102
RTVSPost2010PropOp32
 70
     1
102
RTVSPost2010Prop33
280
     0
102
RTVSPost2010PropOp33
 70
     1
102
RTVSPost2010Prop34
280
     0
102
RTVSPost2010PropOp34
 70
     1
102
RTVSPost2010Prop35
280
     0
102
RTVSPost2010PropOp35
 70
     1
102
RTVSPost2010Prop36
280
     0
102
RTVSPost2010PropOp36
 70
     1
102
RTVSPost2010Prop37
 90
       50
102
RTVSPost2010PropOp37
 70
     1
102
RTVSPost2010Prop38
140
0.0
102
RTVSPost2010PropOp38
 70
     1
102
RTVSPost2010Prop39
140
1.0
102
RTVSPost2010PropOp39
 70
     1
102
RTVSPost2010Prop40
 90
        0
102
RTVSPost2010PropOp40
 70
     1
102
RTVSPost2010Prop41ColorIndex
 90
       18
102
RTVSPost2010Prop41ColorRGB
 90
        0
102
RTVSPost2010PropOp41
 70
     1
102
RTVSPost2010Prop42
 90
       50
102
RTVSPost2010PropOp42
 70
     1
102
RTVSPost2010Prop43
 90
        3
102
RTVSPost2010PropOp43
 70
     1
102
RTVSPost2010Prop44ColorIndex
 90
        5
102
RTVSPost2010Prop44ColorRGB
 90
      255
102
RTVSPost2010PropOp44
 70
     1
102
RTVSPost2010Prop45
280
     0
102
RTVSPost2010PropOp45
 70
     1
102
RTVSPost2010Prop46
 90
       50
102
RTVSPost2010PropOp46
 70
     1
102
RTVSPost2010Prop47
 90
       50
102
RTVSPost2010PropOp47
 70
     1
102
RTVSPost2010Prop48
 90
       50
102
RTVSPost2010PropOp48
 70
     1
102
RTVSPost2010Prop49
280
     0
102
RTVSPost2010PropOp49
 70
     1
102
RTVSPost2010Prop50
 90
       50
102
RTVSPost2010PropOp50
 70
     1
102
RTVSPost2010Prop51ColorIndex
 90
      256
102
RTVSPost2010Prop51ColorRGB
 90
-16777216
102
RTVSPost2010PropOp51
 70
     0
102
RTVSPost2010Prop52
140
1.0
102
RTVSPost2010PropOp52
 70
     0
102
RTVSPost2010Prop53
 90
        2
102
RTVSPost2010PropOp53
 70
     1
102
RTVSPost2010Prop54
  1
strokes_ogs.tif
102
RTVSPost2010PropOp54
 70
     1
102
RTVSPost2010Prop55
280
     0
102
RTVSPost2010PropOp55
 70
     1
102
RTVSPost2010Prop56
140
1.0
102
RTVSPost2010PropOp56
 70
     1
102
RTVSPost2010Prop57
140
1.0
102
RTVSPost2010PropOp57
 70
     1
  0
XRECORD
  5
86
102
{ACAD_REACTORS
330
85
102
}
330
85
100
AcDbXrecord
280
     1
102
RTVSPropertyOp0
 70
     1
102
RTVSPropertyOp1
 70
     1
102
RTVSPropertyOp2
 70
     1
102
RTVSPropertyOp3
 70
     1
102
RTVSPropertyOp4
 70
     1
102
RTVSPropertyOp5
 70
     1
102
RTVSPropertyOp6
 70
     1
102
RTVSPropertyOp7
 70
     1
102
RTVSPropertyOp8
 70
     1
102
RTVSPropertyOp9
 70
     1
102
RTVSPropertyOp10
 70
     1
102
RTVSPropertyOp11
 70
     1
102
RTVSPropertyOp12
 70
     1
102
RTVSPropertyOp13
 70
     1
102
RTVSPropertyOp14
 70
     1
102
RTVSPropertyOp15
 70
     1
102
RTVSPropertyOp16
 70
     1
102
RTVSPropertyOp17
 70
     1
102
RTVSPropertyOp18
 70
     1
102
RTVSPropertyOp19
 70
     1
102
RTVSPropertyOp20
 70
     1
102
RTVSPropertyOp21
 70
     1
102
RTVSPropertyOp22
 70
     1
102
RTVSPropertyOp23
 70
     1
102
RTVSPropertyOp24
 70
     1
102
RTVSPropertyOp25
 70
     1
102
RTVSPropertyOp26
 70
     1
102
RTVSPropertyOp27
 70
     1
102
RTVSPropertyOp28
 70
     1
102
RTVSPropertyOp29
 70
     1
102
RTVSPropertyOp30
 70
     1
102
RTVSPropertyOp31
 70
     1
102
RTVSPropertyOp32
 70
     1
102
RTVSPropertyOp33
 70
     1
102
RTVSPropertyOp34
 70
     1
102
RTVSPropertyOp35
 70
     1
102
RTVSPropertyOp36
 70
     1
102
RTVSPropertyOp37
 70
     1
102
RTVSPropertyOp38
 70
     1
102
RTVSPropertyOp39
 70
     1
102
RTVSPropertyOp40
 70
     1
102
RTVSPropertyOp41
 70
     1
102
RTVSPropertyOp42
 70
     1
102
RTVSPropertyOp43
 70
     1
102
RTVSPropertyOp44
 70
     1
102
RTVSPropertyOp45
 70
     1
102
RTVSPropertyOp46
 70
     1
102
RTVSPropertyOp47
 70
     1
102
RTVSPropertyOp48
 70
     1
102
RTVSPropertyOp49
 70
     1
102
RTVSPropertyOp50
 70
     1
102
RTVSPropertyOp51
 70
     0
102
RTVSPropertyOp52
 70
     0
102
RTVSPropertyOp53
 70
     1
102
RTVSPropertyOp54
 70
     1
102
RTVSPropertyOp55
 70
     1
102
RTVSPropertyOp56
 70
     1
102
RTVSPropertyOp57
 70
     1
102
RTVSPost2010Prop28
280
     0
102
RTVSPost2010PropOp28
 70
     1
102
RTVSPost2010Prop29
280
     1
102
RTVSPost2010PropOp29
 70
     1
102
RTVSPost2010Prop30
280
     1
102
RTVSPost2010PropOp30
 70
     1
102
RTVSPost2010Prop31
280
     0
102
RTVSPost2010PropOp31
 70
     1
102
RTVSPost2010Prop32
280
     0
102
RTVSPost2010PropOp32
 70
     1
102
RTVSPost2010Prop33
280
     0
102
RTVSPost2010PropOp33
 70
     1
102
RTVSPost2010Prop34
280
     0
102
RTVSPost2010PropOp34
 70
     1
102
RTVSPost2010Prop35
280
     0
102
RTVSPost2010PropOp35
 70
     1
102
RTVSPost2010Prop36
280
     0
102
RTVSPost2010PropOp36
 70
     1
102
RTVSPost2010Prop37
 90
       50
102
RTVSPost2010PropOp37
 70
     1
102
RTVSPost2010Prop38
140
0.0
102
RTVSPost2010PropOp38
 70
     1
102
RTVSPost2010Prop39
140
1.0
102
RTVSPost2010PropOp39
 70
     1
102
RTVSPost2010Prop40
 90
        0
102
RTVSPost2010PropOp40
 70
     1
102
RTVSPost2010Prop41ColorIndex
 90
       18
102
RTVSPost2010Prop41ColorRGB
 90
        0
102
RTVSPost2010PropOp41
 70
     1
102
RTVSPost2010Prop42
 90
       50
102
RTVSPost2010PropOp42
 70
     1
102
RTVSPost2010Prop43
 90
        3
102
RTVSPost2010PropOp43
 70
     1
102
RTVSPost2010Prop44ColorIndex
 90
        5
102
RTVSPost2010Prop44ColorRGB
 90
      255
102
RTVSPost2010PropOp44
 70
     1
102
RTVSPost2010Prop45
280
     0
102
RTVSPost2010PropOp45
 70
     1
102
RTVSPost2010Prop46
 90
       50
102
RTVSPost2010PropOp46
 70
     1
102
RTVSPost2010Prop47
 90
       50
102
RTVSPost2010PropOp47
 70
     1
102
RTVSPost2010Prop48
 90
       50
102
RTVSPost2010PropOp48
 70
     1
102
RTVSPost2010Prop49
280
     0
102
RTVSPost2010PropOp49
 70
     1
102
RTVSPost2010Prop50
 90
       50
102
RTVSPost2010PropOp50
 70
     1
102
RTVSPost2010Prop51ColorIndex
 90
      256
102
RTVSPost2010Prop51ColorRGB
 90
-16777216
102
RTVSPost2010PropOp51
 70
     0
102
RTVSPost2010Prop52
140
1.0
102
RTVSPost2010PropOp52
 70
     0
102
RTVSPost2010Prop53
 90
        2
102
RTVSPost2010PropOp53
 70
     1
102
RTVSPost2010Prop54
  1
strokes_ogs.tif
102
RTVSPost2010PropOp54
 70
     1
102
RTVSPost2010Prop55
280
     0
102
RTVSPost2010PropOp55
 70
     1
102
RTVSPost2010Prop56
140
1.0
102
RTVSPost2010PropOp56
 70
     1
102
RTVSPost2010Prop57
140
1.0
102
RTVSPost2010PropOp57
 70
     1
  0
XRECORD
  5
88
102
{ACAD_REACTORS
330
87
102
}
330
87
100
AcDbXrecord
280
     1
102
RTVSPropertyOp0
 70
     1
102
RTVSPropertyOp1
 70
     1
102
RTVSPropertyOp2
 70
     1
102
RTVSPropertyOp3
 70
     1
102
RTVSPropertyOp4
 70
     1
102
RTVSPropertyOp5
 70
     1
102
RTVSPropertyOp6
 70
     1
102
RTVSPropertyOp7
 70
     1
102
RTVSPropertyOp8
 70
     1
102
RTVSPropertyOp9
 70
     1
102
RTVSPropertyOp10
 70
     1
102
RTVSPropertyOp11
 70
     1
102
RTVSPropertyOp12
 70
     1
102
RTVSPropertyOp13
 70
     1
102
RTVSPropertyOp14
 70
     1
102
RTVSPropertyOp15
 70
     1
102
RTVSPropertyOp16
 70
     1
102
RTVSPropertyOp17
 70
     1
102
RTVSPropertyOp18
 70
     1
102
RTVSPropertyOp19
 70
     1
102
RTVSPropertyOp20
 70
     1
102
RTVSPropertyOp21
 70
     1
102
RTVSPropertyOp22
 70
     1
102
RTVSPropertyOp23
 70
     1
102
RTVSPropertyOp24
 70
     1
102
RTVSPropertyOp25
 70
     1
102
RTVSPropertyOp26
 70
     1
102
RTVSPropertyOp27
 70
     1
102
RTVSPropertyOp28
 70
     1
102
RTVSPropertyOp29
 70
     1
102
RTVSPropertyOp30
 70
     1
102
RTVSPropertyOp31
 70
     1
102
RTVSPropertyOp32
 70
     1
102
RTVSPropertyOp33
 70
     1
102
RTVSPropertyOp34
 70
     1
102
RTVSPropertyOp35
 70
     1
102
RTVSPropertyOp36
 70
     1
102
RTVSPropertyOp37
 70
     1
102
RTVSPropertyOp38
 70
     1
102
RTVSPropertyOp39
 70
     1
102
RTVSPropertyOp40
 70
     1
102
RTVSPropertyOp41
 70
     1
102
RTVSPropertyOp42
 70
     1
102
RTVSPropertyOp43
 70
     1
102
RTVSPropertyOp44
 70
     1
102
RTVSPropertyOp45
 70
     1
102
RTVSPropertyOp46
 70
     1
102
RTVSPropertyOp47
 70
     1
102
RTVSPropertyOp48
 70
     1
102
RTVSPropertyOp49
 70
     1
102
RTVSPropertyOp50
 70
     1
102
RTVSPropertyOp51
 70
     0
102
RTVSPropertyOp52
 70
     0
102
RTVSPropertyOp53
 70
     1
102
RTVSPropertyOp54
 70
     1
102
RTVSPropertyOp55
 70
     1
102
RTVSPropertyOp56
 70
     1
102
RTVSPropertyOp57
 70
     1
102
RTVSPost2010Prop28
280
     0
102
RTVSPost2010PropOp28
 70
     1
102
RTVSPost2010Prop29
280
     1
102
RTVSPost2010PropOp29
 70
     1
102
RTVSPost2010Prop30
280
     1
102
RTVSPost2010PropOp30
 70
     1
102
RTVSPost2010Prop31
280
     0
102
RTVSPost2010PropOp31
 70
     1
102
RTVSPost2010Prop32
280
     0
102
RTVSPost2010PropOp32
 70
     1
102
RTVSPost2010Prop33
280
     0
102
RTVSPost2010PropOp33
 70
     1
102
RTVSPost2010Prop34
280
     0
102
RTVSPost2010PropOp34
 70
     1
102
RTVSPost2010Prop35
280
     0
102
RTVSPost2010PropOp35
 70
     1
102
RTVSPost2010Prop36
280
     0
102
RTVSPost2010PropOp36
 70
     1
102
RTVSPost2010Prop37
 90
       50
102
RTVSPost2010PropOp37
 70
     1
102
RTVSPost2010Prop38
140
0.0
102
RTVSPost2010PropOp38
 70
     1
102
RTVSPost2010Prop39
140
1.0
102
RTVSPost2010PropOp39
 70
     1
102
RTVSPost2010Prop40
 90
        0
102
RTVSPost2010PropOp40
 70
     1
102
RTVSPost2010Prop41ColorIndex
 90
       18
102
RTVSPost2010Prop41ColorRGB
 90
        0
102
RTVSPost2010PropOp41
 70
     1
102
RTVSPost2010Prop42
 90
       50
102
RTVSPost2010PropOp42
 70
     1
102
RTVSPost2010Prop43
 90
        3
102
RTVSPost2010PropOp43
 70
     1
102
RTVSPost2010Prop44ColorIndex
 90
        5
102
RTVSPost2010Prop44ColorRGB
 90
      255
102
RTVSPost2010PropOp44
 70
     1
102
RTVSPost2010Prop45
280
     0
102
RTVSPost2010PropOp45
 70
     1
102
RTVSPost2010Prop46
 90
       50
102
RTVSPost2010PropOp46
 70
     1
102
RTVSPost2010Prop47
 90
       50
102
RTVSPost2010PropOp47
 70
     1
102
RTVSPost2010Prop48
 90
       50
102
RTVSPost2010PropOp48
 70
     1
102
RTVSPost2010Prop49
280
     0
102
RTVSPost2010PropOp49
 70
     1
102
RTVSPost2010Prop50
 90
       50
102
RTVSPost2010PropOp50
 70
     1
102
RTVSPost2010Prop51ColorIndex
 90
      256
102
RTVSPost2010Prop51ColorRGB
 90
-16777216
102
RTVSPost2010PropOp51
 70
     0
102
RTVSPost2010Prop52
140
1.0
102
RTVSPost2010PropOp52
 70
     0
102
RTVSPost2010Prop53
 90
        2
102
RTVSPost2010PropOp53
 70
     1
102
RTVSPost2010Prop54
  1
strokes_ogs.tif
102
RTVSPost2010PropOp54
 70
     1
102
RTVSPost2010Prop55
280
     0
102
RTVSPost2010PropOp55
 70
     1
102
RTVSPost2010Prop56
140
1.0
102
RTVSPost2010PropOp56
 70
     1
102
RTVSPost2010Prop57
140
1.0
102
RTVSPost2010PropOp57
 70
     1
  0
XRECORD
  5
8A
102
{ACAD_REACTORS
330
89
102
}
330
89
100
AcDbXrecord
280
     1
102
RTVSPropertyOp0
 70
     1
102
RTVSPropertyOp1
 70
     1
102
RTVSPropertyOp2
 70
     1
102
RTVSPropertyOp3
 70
     1
102
RTVSPropertyOp4
 70
     1
102
RTVSPropertyOp5
 70
     1
102
RTVSPropertyOp6
 70
     1
102
RTVSPropertyOp7
 70
     1
102
RTVSPropertyOp8
 70
     1
102
RTVSPropertyOp9
 70
     1
102
RTVSPropertyOp10
 70
     1
102
RTVSPropertyOp11
 70
     1
102
RTVSPropertyOp12
 70
     1
102
RTVSPropertyOp13
 70
     1
102
RTVSPropertyOp14
 70
     1
102
RTVSPropertyOp15
 70
     1
102
RTVSPropertyOp16
 70
     1
102
RTVSPropertyOp17
 70
     1
102
RTVSPropertyOp18
 70
     1
102
RTVSPropertyOp19
 70
     1
102
RTVSPropertyOp20
 70
     1
102
RTVSPropertyOp21
 70
     1
102
RTVSPropertyOp22
 70
     1
102
RTVSPropertyOp23
 70
     1
102
RTVSPropertyOp24
 70
     1
102
RTVSPropertyOp25
 70
     1
102
RTVSPropertyOp26
 70
     1
102
RTVSPropertyOp27
 70
     1
102
RTVSPropertyOp28
 70
     1
102
RTVSPropertyOp29
 70
     1
102
RTVSPropertyOp30
 70
     1
102
RTVSPropertyOp31
 70
     1
102
RTVSPropertyOp32
 70
     1
102
RTVSPropertyOp33
 70
     1
102
RTVSPropertyOp34
 70
     1
102
RTVSPropertyOp35
 70
     1
102
RTVSPropertyOp36
 70
     1
102
RTVSPropertyOp37
 70
     1
102
RTVSPropertyOp38
 70
     1
102
RTVSPropertyOp39
 70
     1
102
RTVSPropertyOp40
 70
     1
102
RTVSPropertyOp41
 70
     1
102
RTVSPropertyOp42
 70
     1
102
RTVSPropertyOp43
 70
     1
102
RTVSPropertyOp44
 70
     1
102
RTVSPropertyOp45
 70
     1
102
RTVSPropertyOp46
 70
     1
102
RTVSPropertyOp47
 70
     1
102
RTVSPropertyOp48
 70
     1
102
RTVSPropertyOp49
 70
     1
102
RTVSPropertyOp50
 70
     1
102
RTVSPropertyOp51
 70
     0
102
RTVSPropertyOp52
 70
     0
102
RTVSPropertyOp53
 70
     1
102
RTVSPropertyOp54
 70
     1
102
RTVSPropertyOp55
 70
     1
102
RTVSPropertyOp56
 70
     1
102
RTVSPropertyOp57
 70
     1
102
RTVSPost2010Prop28
280
     0
102
RTVSPost2010PropOp28
 70
     1
102
RTVSPost2010Prop29
280
     1
102
RTVSPost2010PropOp29
 70
     1
102
RTVSPost2010Prop30
280
     1
102
RTVSPost2010PropOp30
 70
     1
102
RTVSPost2010Prop31
280
     0
102
RTVSPost2010PropOp31
 70
     1
102
RTVSPost2010Prop32
280
     0
102
RTVSPost2010PropOp32
 70
     1
102
RTVSPost2010Prop33
280
     0
102
RTVSPost2010PropOp33
 70
     1
102
RTVSPost2010Prop34
280
     0
102
RTVSPost2010PropOp34
 70
     1
102
RTVSPost2010Prop35
280
     0
102
RTVSPost2010PropOp35
 70
     1
102
RTVSPost2010Prop36
280
     0
102
RTVSPost2010PropOp36
 70
     1
102
RTVSPost2010Prop37
 90
       50
102
RTVSPost2010PropOp37
 70
     1
102
RTVSPost2010Prop38
140
0.0
102
RTVSPost2010PropOp38
 70
     1
102
RTVSPost2010Prop39
140
1.0
102
RTVSPost2010PropOp39
 70
     1
102
RTVSPost2010Prop40
 90
        0
102
RTVSPost2010PropOp40
 70
     1
102
RTVSPost2010Prop41ColorIndex
 90
       18
102
RTVSPost2010Prop41ColorRGB
 90
        0
102
RTVSPost2010PropOp41
 70
     1
102
RTVSPost2010Prop42
 90
       50
102
RTVSPost2010PropOp42
 70
     1
102
RTVSPost2010Prop43
 90
        3
102
RTVSPost2010PropOp43
 70
     1
102
RTVSPost2010Prop44ColorIndex
 90
        5
102
RTVSPost2010Prop44ColorRGB
 90
      255
102
RTVSPost2010PropOp44
 70
     1
102
RTVSPost2010Prop45
280
     0
102
RTVSPost2010PropOp45
 70
     1
102
RTVSPost2010Prop46
 90
       50
102
RTVSPost2010PropOp46
 70
     1
102
RTVSPost2010Prop47
 90
       50
102
RTVSPost2010PropOp47
 70
     1
102
RTVSPost2010Prop48
 90
       50
102
RTVSPost2010PropOp48
 70
     1
102
RTVSPost2010Prop49
280
     0
102
RTVSPost2010PropOp49
 70
     1
102
RTVSPost2010Prop50
 90
       50
102
RTVSPost2010PropOp50
 70
     1
102
RTVSPost2010Prop51ColorIndex
 90
      256
102
RTVSPost2010Prop51ColorRGB
 90
-16777216
102
RTVSPost2010PropOp51
 70
     0
102
RTVSPost2010Prop52
140
1.0
102
RTVSPost2010PropOp52
 70
     0
102
RTVSPost2010Prop53
 90
        2
102
RTVSPost2010PropOp53
 70
     1
102
RTVSPost2010Prop54
  1
strokes_ogs.tif
102
RTVSPost2010PropOp54
 70
     1
102
RTVSPost2010Prop55
280
     0
102
RTVSPost2010PropOp55
 70
     1
102
RTVSPost2010Prop56
140
1.0
102
RTVSPost2010PropOp56
 70
     1
102
RTVSPost2010Prop57
140
1.0
102
RTVSPost2010PropOp57
 70
     1
  0
XRECORD
  5
8C
102
{ACAD_REACTORS
330
8B
102
}
330
8B
100
AcDbXrecord
280
     1
102
RTVSPropertyOp0
 70
     1
102
RTVSPropertyOp1
 70
     1
102
RTVSPropertyOp2
 70
     1
102
RTVSPropertyOp3
 70
     1
102
RTVSPropertyOp4
 70
     1
102
RTVSPropertyOp5
 70
     1
102
RTVSPropertyOp6
 70
     1
102
RTVSPropertyOp7
 70
     1
102
RTVSPropertyOp8
 70
     1
102
RTVSPropertyOp9
 70
     1
102
RTVSPropertyOp10
 70
     1
102
RTVSPropertyOp11
 70
     1
102
RTVSPropertyOp12
 70
     1
102
RTVSPropertyOp13
 70
     1
102
RTVSPropertyOp14
 70
     1
102
RTVSPropertyOp15
 70
     1
102
RTVSPropertyOp16
 70
     1
102
RTVSPropertyOp17
 70
     1
102
RTVSPropertyOp18
 70
     1
102
RTVSPropertyOp19
 70
     1
102
RTVSPropertyOp20
 70
     1
102
RTVSPropertyOp21
 70
     1
102
RTVSPropertyOp22
 70
     1
102
RTVSPropertyOp23
 70
     1
102
RTVSPropertyOp24
 70
     1
102
RTVSPropertyOp25
 70
     1
102
RTVSPropertyOp26
 70
     1
102
RTVSPropertyOp27
 70
     1
102
RTVSPropertyOp28
 70
     1
102
RTVSPropertyOp29
 70
     1
102
RTVSPropertyOp30
 70
     1
102
RTVSPropertyOp31
 70
     1
102
RTVSPropertyOp32
 70
     1
102
RTVSPropertyOp33
 70
     1
102
RTVSPropertyOp34
 70
     1
102
RTVSPropertyOp35
 70
     1
102
RTVSPropertyOp36
 70
     1
102
RTVSPropertyOp37
 70
     1
102
RTVSPropertyOp38
 70
     1
102
RTVSPropertyOp39
 70
     1
102
RTVSPropertyOp40
 70
     1
102
RTVSPropertyOp41
 70
     1
102
RTVSPropertyOp42
 70
     1
102
RTVSPropertyOp43
 70
     1
102
RTVSPropertyOp44
 70
     1
102
RTVSPropertyOp45
 70
     1
102
RTVSPropertyOp46
 70
     1
102
RTVSPropertyOp47
 70
     1
102
RTVSPropertyOp48
 70
     1
102
RTVSPropertyOp49
 70
     1
102
RTVSPropertyOp50
 70
     1
102
RTVSPropertyOp51
 70
     0
102
RTVSPropertyOp52
 70
     0
102
RTVSPropertyOp53
 70
     1
102
RTVSPropertyOp54
 70
     1
102
RTVSPropertyOp55
 70
     1
102
RTVSPropertyOp56
 70
     1
102
RTVSPropertyOp57
 70
     1
102
RTVSPost2010Prop28
280
     0
102
RTVSPost2010PropOp28
 70
     1
102
RTVSPost2010Prop29
280
     1
102
RTVSPost2010PropOp29
 70
     1
102
RTVSPost2010Prop30
280
     1
102
RTVSPost2010PropOp30
 70
     1
102
RTVSPost2010Prop31
280
     0
102
RTVSPost2010PropOp31
 70
     1
102
RTVSPost2010Prop32
280
     0
102
RTVSPost2010PropOp32
 70
     1
102
RTVSPost2010Prop33
280
     0
102
RTVSPost2010PropOp33
 70
     1
102
RTVSPost2010Prop34
280
     0
102
RTVSPost2010PropOp34
 70
     1
102
RTVSPost2010Prop35
280
     0
102
RTVSPost2010PropOp35
 70
     1
102
RTVSPost2010Prop36
280
     0
102
RTVSPost2010PropOp36
 70
     1
102
RTVSPost2010Prop37
 90
       50
102
RTVSPost2010PropOp37
 70
     1
102
RTVSPost2010Prop38
140
0.0
102
RTVSPost2010PropOp38
 70
     1
102
RTVSPost2010Prop39
140
1.0
102
RTVSPost2010PropOp39
 70
     1
102
RTVSPost2010Prop40
 90
        0
102
RTVSPost2010PropOp40
 70
     1
102
RTVSPost2010Prop41ColorIndex
 90
       18
102
RTVSPost2010Prop41ColorRGB
 90
        0
102
RTVSPost2010PropOp41
 70
     1
102
RTVSPost2010Prop42
 90
       50
102
RTVSPost2010PropOp42
 70
     1
102
RTVSPost2010Prop43
 90
        3
102
RTVSPost2010PropOp43
 70
     1
102
RTVSPost2010Prop44ColorIndex
 90
        5
102
RTVSPost2010Prop44ColorRGB
 90
      255
102
RTVSPost2010PropOp44
 70
     1
102
RTVSPost2010Prop45
280
     0
102
RTVSPost2010PropOp45
 70
     1
102
RTVSPost2010Prop46
 90
       50
102
RTVSPost2010PropOp46
 70
     1
102
RTVSPost2010Prop47
 90
       50
102
RTVSPost2010PropOp47
 70
     1
102
RTVSPost2010Prop48
 90
       50
102
RTVSPost2010PropOp48
 70
     1
102
RTVSPost2010Prop49
280
     0
102
RTVSPost2010PropOp49
 70
     1
102
RTVSPost2010Prop50
 90
       50
102
RTVSPost2010PropOp50
 70
     1
102
RTVSPost2010Prop51ColorIndex
 90
      256
102
RTVSPost2010Prop51ColorRGB
 90
-16777216
102
RTVSPost2010PropOp51
 70
     0
102
RTVSPost2010Prop52
140
1.0
102
RTVSPost2010PropOp52
 70
     0
102
RTVSPost2010Prop53
 90
        2
102
RTVSPost2010PropOp53
 70
     1
102
RTVSPost2010Prop54
  1
strokes_ogs.tif
102
RTVSPost2010PropOp54
 70
     1
102
RTVSPost2010Prop55
280
     0
102
RTVSPost2010PropOp55
 70
     1
102
RTVSPost2010Prop56
140
1.0
102
RTVSPost2010PropOp56
 70
     1
102
RTVSPost2010Prop57
140
1.0
102
RTVSPost2010PropOp57
 70
     1
  0
XRECORD
  5
92
102
{ACAD_REACTORS
330
91
102
}
330
91
100
AcDbXrecord
280
     1
102
RTVSPropertyOp0
 70
     1
102
RTVSPropertyOp1
 70
     1
102
RTVSPropertyOp2
 70
     1
102
RTVSPropertyOp3
 70
     1
102
RTVSPropertyOp4
 70
     1
102
RTVSPropertyOp5
 70
     1
102
RTVSPropertyOp6
 70
     1
102
RTVSPropertyOp7
 70
     1
102
RTVSPropertyOp8
 70
     1
102
RTVSPropertyOp9
 70
     1
102
RTVSPropertyOp10
 70
     1
102
RTVSPropertyOp11
 70
     1
102
RTVSPropertyOp12
 70
     1
102
RTVSPropertyOp13
 70
     1
102
RTVSPropertyOp14
 70
     1
102
RTVSPropertyOp15
 70
     1
102
RTVSPropertyOp16
 70
     1
102
RTVSPropertyOp17
 70
     1
102
RTVSPropertyOp18
 70
     1
102
RTVSPropertyOp19
 70
     1
102
RTVSPropertyOp20
 70
     1
102
RTVSPropertyOp21
 70
     1
102
RTVSPropertyOp22
 70
     1
102
RTVSPropertyOp23
 70
     1
102
RTVSPropertyOp24
 70
     1
102
RTVSPropertyOp25
 70
     1
102
RTVSPropertyOp26
 70
     1
102
RTVSPropertyOp27
 70
     1
102
RTVSPropertyOp28
 70
     1
102
RTVSPropertyOp29
 70
     1
102
RTVSPropertyOp30
 70
     1
102
RTVSPropertyOp31
 70
     1
102
RTVSPropertyOp32
 70
     1
102
RTVSPropertyOp33
 70
     1
102
RTVSPropertyOp34
 70
     1
102
RTVSPropertyOp35
 70
     1
102
RTVSPropertyOp36
 70
     1
102
RTVSPropertyOp37
 70
     1
102
RTVSPropertyOp38
 70
     1
102
RTVSPropertyOp39
 70
     1
102
RTVSPropertyOp40
 70
     1
102
RTVSPropertyOp41
 70
     1
102
RTVSPropertyOp42
 70
     1
102
RTVSPropertyOp43
 70
     1
102
RTVSPropertyOp44
 70
     1
102
RTVSPropertyOp45
 70
     1
102
RTVSPropertyOp46
 70
     1
102
RTVSPropertyOp47
 70
     1
102
RTVSPropertyOp48
 70
     1
102
RTVSPropertyOp49
 70
     1
102
RTVSPropertyOp50
 70
     1
102
RTVSPropertyOp51
 70
     0
102
RTVSPropertyOp52
 70
     0
102
RTVSPropertyOp53
 70
     1
102
RTVSPropertyOp54
 70
     1
102
RTVSPropertyOp55
 70
     1
102
RTVSPropertyOp56
 70
     1
102
RTVSPropertyOp57
 70
     1
102
RTVSPost2010Prop28
280
     0
102
RTVSPost2010PropOp28
 70
     1
102
RTVSPost2010Prop29
280
     1
102
RTVSPost2010PropOp29
 70
     1
102
RTVSPost2010Prop30
280
     1
102
RTVSPost2010PropOp30
 70
     1
102
RTVSPost2010Prop31
280
     0
102
RTVSPost2010PropOp31
 70
     1
102
RTVSPost2010Prop32
280
     0
102
RTVSPost2010PropOp32
 70
     1
102
RTVSPost2010Prop33
280
     0
102
RTVSPost2010PropOp33
 70
     1
102
RTVSPost2010Prop34
280
     0
102
RTVSPost2010PropOp34
 70
     1
102
RTVSPost2010Prop35
280
     0
102
RTVSPost2010PropOp35
 70
     1
102
RTVSPost2010Prop36
280
     0
102
RTVSPost2010PropOp36
 70
     1
102
RTVSPost2010Prop37
 90
       50
102
RTVSPost2010PropOp37
 70
     1
102
RTVSPost2010Prop38
140
0.0
102
RTVSPost2010PropOp38
 70
     1
102
RTVSPost2010Prop39
140
1.0
102
RTVSPost2010PropOp39
 70
     1
102
RTVSPost2010Prop40
 90
        0
102
RTVSPost2010PropOp40
 70
     1
102
RTVSPost2010Prop41ColorIndex
 90
       18
102
RTVSPost2010Prop41ColorRGB
 90
        0
102
RTVSPost2010PropOp41
 70
     1
102
RTVSPost2010Prop42
 90
       50
102
RTVSPost2010PropOp42
 70
     1
102
RTVSPost2010Prop43
 90
        3
102
RTVSPost2010PropOp43
 70
     1
102
RTVSPost2010Prop44ColorIndex
 90
        5
102
RTVSPost2010Prop44ColorRGB
 90
      255
102
RTVSPost2010PropOp44
 70
     1
102
RTVSPost2010Prop45
280
     0
102
RTVSPost2010PropOp45
 70
     1
102
RTVSPost2010Prop46
 90
       50
102
RTVSPost2010PropOp46
 70
     1
102
RTVSPost2010Prop47
 90
       50
102
RTVSPost2010PropOp47
 70
     1
102
RTVSPost2010Prop48
 90
       50
102
RTVSPost2010PropOp48
 70
     1
102
RTVSPost2010Prop49
280
     0
102
RTVSPost2010PropOp49
 70
     1
102
RTVSPost2010Prop50
 90
       50
102
RTVSPost2010PropOp50
 70
     1
102
RTVSPost2010Prop51ColorIndex
 90
      256
102
RTVSPost2010Prop51ColorRGB
 90
-16777216
102
RTVSPost2010PropOp51
 70
     0
102
RTVSPost2010Prop52
140
1.0
102
RTVSPost2010PropOp52
 70
     0
102
RTVSPost2010Prop53
 90
        2
102
RTVSPost2010PropOp53
 70
     1
102
RTVSPost2010Prop54
  1
strokes_ogs.tif
102
RTVSPost2010PropOp54
 70
     1
102
RTVSPost2010Prop55
280
     0
102
RTVSPost2010PropOp55
 70
     1
102
RTVSPost2010Prop56
140
1.0
102
RTVSPost2010PropOp56
 70
     1
102
RTVSPost2010Prop57
140
1.0
102
RTVSPost2010PropOp57
 70
     1
  0
XRECORD
  5
A6
102
{ACAD_REACTORS
330
A5
102
}
330
A5
100
AcDbXrecord
280
     1
102
RTVSPropertyOp0
 70
     0
102
RTVSPropertyOp1
 70
     0
102
RTVSPropertyOp2
 70
     0
102
RTVSPropertyOp3
 70
     0
102
RTVSPropertyOp4
 70
     0
102
RTVSPropertyOp5
 70
     0
102
RTVSPropertyOp6
 70
     0
102
RTVSPropertyOp7
 70
     0
102
RTVSPropertyOp8
 70
     0
102
RTVSPropertyOp9
 70
     0
102
RTVSPropertyOp10
 70
     0
102
RTVSPropertyOp11
 70
     0
102
RTVSPropertyOp12
 70
     0
102
RTVSPropertyOp13
 70
     0
102
RTVSPropertyOp14
 70
     2
102
RTVSPropertyOp15
 70
     0
102
RTVSPropertyOp16
 70
     0
102
RTVSPropertyOp17
 70
     0
102
RTVSPropertyOp18
 70
     0
102
RTVSPropertyOp19
 70
     0
102
RTVSPropertyOp20
 70
     0
102
RTVSPropertyOp21
 70
     0
102
RTVSPropertyOp22
 70
     0
102
RTVSPropertyOp23
 70
     0
102
RTVSPropertyOp24
 70
     0
102
RTVSPropertyOp25
 70
     0
102
RTVSPropertyOp26
 70
     0
102
RTVSPropertyOp27
 70
     0
102
RTVSPropertyOp28
 70
     0
102
RTVSPropertyOp29
 70
     0
102
RTVSPropertyOp30
 70
     0
102
RTVSPropertyOp31
 70
     0
102
RTVSPropertyOp32
 70
     0
102
RTVSPropertyOp33
 70
     0
102
RTVSPropertyOp34
 70
     0
102
RTVSPropertyOp35
 70
     0
102
RTVSPropertyOp36
 70
     0
102
RTVSPropertyOp37
 70
     0
102
RTVSPropertyOp38
 70
     0
102
RTVSPropertyOp39
 70
     0
102
RTVSPropertyOp40
 70
     0
102
RTVSPropertyOp41
 70
     0
102
RTVSPropertyOp42
 70
     0
102
RTVSPropertyOp43
 70
     0
102
RTVSPropertyOp44
 70
     0
102
RTVSPropertyOp45
 70
     0
102
RTVSPropertyOp46
 70
     0
102
RTVSPropertyOp47
 70
     0
102
RTVSPropertyOp48
 70
     0
102
RTVSPropertyOp49
 70
     0
102
RTVSPropertyOp50
 70
     0
102
RTVSPropertyOp51
 70
     0
102
RTVSPropertyOp52
 70
     0
102
RTVSPropertyOp53
 70
     0
102
RTVSPropertyOp54
 70
     0
102
RTVSPropertyOp55
 70
     0
102
RTVSPropertyOp56
 70
     0
102
RTVSPropertyOp57
 70
     0
102
RTVSPost2010Prop28
280
     0
102
RTVSPost2010PropOp28
 70
     0
102
RTVSPost2010Prop29
280
     1
102
RTVSPost2010PropOp29
 70
     0
102
RTVSPost2010Prop30
280
     1
102
RTVSPost2010PropOp30
 70
     0
102
RTVSPost2010Prop31
280
     0
102
RTVSPost2010PropOp31
 70
     0
102
RTVSPost2010Prop32
280
     0
102
RTVSPost2010PropOp32
 70
     0
102
RTVSPost2010Prop33
280
     0
102
RTVSPost2010PropOp33
 70
     0
102
RTVSPost2010Prop34
280
     0
102
RTVSPost2010PropOp34
 70
     0
102
RTVSPost2010Prop35
280
     0
102
RTVSPost2010PropOp35
 70
     0
102
RTVSPost2010Prop36
280
     0
102
RTVSPost2010PropOp36
 70
     0
102
RTVSPost2010Prop37
 90
       50
102
RTVSPost2010PropOp37
 70
     0
102
RTVSPost2010Prop38
140
0.0
102
RTVSPost2010PropOp38
 70
     0
102
RTVSPost2010Prop39
140
1.0
102
RTVSPost2010PropOp39
 70
     0
102
RTVSPost2010Prop40
 90
        0
102
RTVSPost2010PropOp40
 70
     0
102
RTVSPost2010Prop41ColorIndex
 90
       18
102
RTVSPost2010Prop41ColorRGB
 90
        0
102
RTVSPost2010PropOp41
 70
     0
102
RTVSPost2010Prop42
 90
       50
102
RTVSPost2010PropOp42
 70
     0
102
RTVSPost2010Prop43
 90
        3
102
RTVSPost2010PropOp43
 70
     0
102
RTVSPost2010Prop44ColorIndex
 90
        5
102
RTVSPost2010Prop44ColorRGB
 90
      255
102
RTVSPost2010PropOp44
 70
     0
102
RTVSPost2010Prop45
280
     0
102
RTVSPost2010PropOp45
 70
     0
102
RTVSPost2010Prop46
 90
       50
102
RTVSPost2010PropOp46
 70
     0
102
RTVSPost2010Prop47
 90
       50
102
RTVSPost2010PropOp47
 70
     0
102
RTVSPost2010Prop48
 90
       50
102
RTVSPost2010PropOp48
 70
     0
102
RTVSPost2010Prop49
280
     0
102
RTVSPost2010PropOp49
 70
     0
102
RTVSPost2010Prop50
 90
       50
102
RTVSPost2010PropOp50
 70
     0
102
RTVSPost2010Prop51ColorIndex
 90
      256
102
RTVSPost2010Prop51ColorRGB
 90
-16777216
102
RTVSPost2010PropOp51
 70
     0
102
RTVSPost2010Prop52
140
1.0
102
RTVSPost2010PropOp52
 70
     0
102
RTVSPost2010Prop53
 90
        2
102
RTVSPost2010PropOp53
 70
     0
102
RTVSPost2010Prop54
  1
strokes_ogs.tif
102
RTVSPost2010PropOp54
 70
     0
102
RTVSPost2010Prop55
280
     0
102
RTVSPost2010PropOp55
 70
     0
102
RTVSPost2010Prop56
140
1.0
102
RTVSPost2010PropOp56
 70
     0
102
RTVSPost2010Prop57
140
1.0
102
RTVSPost2010PropOp57
 70
     0
  0
XRECORD
  5
A0
102
{ACAD_REACTORS
330
9F
102
}
330
9F
100
AcDbXrecord
280
     1
102
RTVSPropertyOp0
 70
     1
102
RTVSPropertyOp1
 70
     1
102
RTVSPropertyOp2
 70
     1
102
RTVSPropertyOp3
 70
     1
102
RTVSPropertyOp4
 70
     1
102
RTVSPropertyOp5
 70
     1
102
RTVSPropertyOp6
 70
     1
102
RTVSPropertyOp7
 70
     1
102
RTVSPropertyOp8
 70
     1
102
RTVSPropertyOp9
 70
     1
102
RTVSPropertyOp10
 70
     1
102
RTVSPropertyOp11
 70
     1
102
RTVSPropertyOp12
 70
     1
102
RTVSPropertyOp13
 70
     1
102
RTVSPropertyOp14
 70
     1
102
RTVSPropertyOp15
 70
     1
102
RTVSPropertyOp16
 70
     1
102
RTVSPropertyOp17
 70
     1
102
RTVSPropertyOp18
 70
     1
102
RTVSPropertyOp19
 70
     1
102
RTVSPropertyOp20
 70
     1
102
RTVSPropertyOp21
 70
     1
102
RTVSPropertyOp22
 70
     1
102
RTVSPropertyOp23
 70
     1
102
RTVSPropertyOp24
 70
     1
102
RTVSPropertyOp25
 70
     1
102
RTVSPropertyOp26
 70
     1
102
RTVSPropertyOp27
 70
     1
102
RTVSPropertyOp28
 70
     1
102
RTVSPropertyOp29
 70
     1
102
RTVSPropertyOp30
 70
     1
102
RTVSPropertyOp31
 70
     1
102
RTVSPropertyOp32
 70
     1
102
RTVSPropertyOp33
 70
     1
102
RTVSPropertyOp34
 70
     1
102
RTVSPropertyOp35
 70
     1
102
RTVSPropertyOp36
 70
     1
102
RTVSPropertyOp37
 70
     1
102
RTVSPropertyOp38
 70
     1
102
RTVSPropertyOp39
 70
     1
102
RTVSPropertyOp40
 70
     1
102
RTVSPropertyOp41
 70
     1
102
RTVSPropertyOp42
 70
     1
102
RTVSPropertyOp43
 70
     1
102
RTVSPropertyOp44
 70
     1
102
RTVSPropertyOp45
 70
     1
102
RTVSPropertyOp46
 70
     1
102
RTVSPropertyOp47
 70
     1
102
RTVSPropertyOp48
 70
     1
102
RTVSPropertyOp49
 70
     1
102
RTVSPropertyOp50
 70
     1
102
RTVSPropertyOp51
 70
     0
102
RTVSPropertyOp52
 70
     0
102
RTVSPropertyOp53
 70
     1
102
RTVSPropertyOp54
 70
     1
102
RTVSPropertyOp55
 70
     1
102
RTVSPropertyOp56
 70
     1
102
RTVSPropertyOp57
 70
     1
102
RTVSPost2010Prop28
280
     0
102
RTVSPost2010PropOp28
 70
     1
102
RTVSPost2010Prop29
280
     1
102
RTVSPost2010PropOp29
 70
     1
102
RTVSPost2010Prop30
280
     1
102
RTVSPost2010PropOp30
 70
     1
102
RTVSPost2010Prop31
280
     0
102
RTVSPost2010PropOp31
 70
     1
102
RTVSPost2010Prop32
280
     0
102
RTVSPost2010PropOp32
 70
     1
102
RTVSPost2010Prop33
280
     0
102
RTVSPost2010PropOp33
 70
     1
102
RTVSPost2010Prop34
280
     0
102
RTVSPost2010PropOp34
 70
     1
102
RTVSPost2010Prop35
280
     0
102
RTVSPost2010PropOp35
 70
     1
102
RTVSPost2010Prop36
280
     0
102
RTVSPost2010PropOp36
 70
     1
102
RTVSPost2010Prop37
 90
       50
102
RTVSPost2010PropOp37
 70
     1
102
RTVSPost2010Prop38
140
0.0
102
RTVSPost2010PropOp38
 70
     1
102
RTVSPost2010Prop39
140
1.0
102
RTVSPost2010PropOp39
 70
     1
102
RTVSPost2010Prop40
 90
        0
102
RTVSPost2010PropOp40
 70
     1
102
RTVSPost2010Prop41ColorIndex
 90
       18
102
RTVSPost2010Prop41ColorRGB
 90
        0
102
RTVSPost2010PropOp41
 70
     1
102
RTVSPost2010Prop42
 90
       50
102
RTVSPost2010PropOp42
 70
     1
102
RTVSPost2010Prop43
 90
        3
102
RTVSPost2010PropOp43
 70
     1
102
RTVSPost2010Prop44ColorIndex
 90
        5
102
RTVSPost2010Prop44ColorRGB
 90
      255
102
RTVSPost2010PropOp44
 70
     1
102
RTVSPost2010Prop45
280
     0
102
RTVSPost2010PropOp45
 70
     1
102
RTVSPost2010Prop46
 90
       50
102
RTVSPost2010PropOp46
 70
     1
102
RTVSPost2010Prop47
 90
       50
102
RTVSPost2010PropOp47
 70
     1
102
RTVSPost2010Prop48
 90
       50
102
RTVSPost2010PropOp48
 70
     1
102
RTVSPost2010Prop49
280
     0
102
RTVSPost2010PropOp49
 70
     1
102
RTVSPost2010Prop50
 90
       50
102
RTVSPost2010PropOp50
 70
     1
102
RTVSPost2010Prop51ColorIndex
 90
      256
102
RTVSPost2010Prop51ColorRGB
 90
-16777216
102
RTVSPost2010PropOp51
 70
     0
102
RTVSPost2010Prop52
140
1.0
102
RTVSPost2010PropOp52
 70
     0
102
RTVSPost2010Prop53
 90
        2
102
RTVSPost2010PropOp53
 70
     1
102
RTVSPost2010Prop54
  1
strokes_ogs.tif
102
RTVSPost2010PropOp54
 70
     1
102
RTVSPost2010Prop55
280
     0
102
RTVSPost2010PropOp55
 70
     1
102
RTVSPost2010Prop56
140
1.0
102
RTVSPost2010PropOp56
 70
     1
102
RTVSPost2010Prop57
140
1.0
102
RTVSPost2010PropOp57
 70
     1
  0
XRECORD
  5
A8
102
{ACAD_REACTORS
330
A7
102
}
330
A7
100
AcDbXrecord
280
     1
102
RTVSPropertyOp0
 70
     0
102
RTVSPropertyOp1
 70
     0
102
RTVSPropertyOp2
 70
     0
102
RTVSPropertyOp3
 70
     0
102
RTVSPropertyOp4
 70
     0
102
RTVSPropertyOp5
 70
     0
102
RTVSPropertyOp6
 70
     0
102
RTVSPropertyOp7
 70
     0
102
RTVSPropertyOp8
 70
     0
102
RTVSPropertyOp9
 70
     0
102
RTVSPropertyOp10
 70
     0
102
RTVSPropertyOp11
 70
     0
102
RTVSPropertyOp12
 70
     0
102
RTVSPropertyOp13
 70
     0
102
RTVSPropertyOp14
 70
     2
102
RTVSPropertyOp15
 70
     0
102
RTVSPropertyOp16
 70
     0
102
RTVSPropertyOp17
 70
     0
102
RTVSPropertyOp18
 70
     0
102
RTVSPropertyOp19
 70
     0
102
RTVSPropertyOp20
 70
     0
102
RTVSPropertyOp21
 70
     0
102
RTVSPropertyOp22
 70
     0
102
RTVSPropertyOp23
 70
     0
102
RTVSPropertyOp24
 70
     0
102
RTVSPropertyOp25
 70
     0
102
RTVSPropertyOp26
 70
     0
102
RTVSPropertyOp27
 70
     0
102
RTVSPropertyOp28
 70
     0
102
RTVSPropertyOp29
 70
     0
102
RTVSPropertyOp30
 70
     0
102
RTVSPropertyOp31
 70
     0
102
RTVSPropertyOp32
 70
     0
102
RTVSPropertyOp33
 70
     0
102
RTVSPropertyOp34
 70
     0
102
RTVSPropertyOp35
 70
     0
102
RTVSPropertyOp36
 70
     0
102
RTVSPropertyOp37
 70
     0
102
RTVSPropertyOp38
 70
     0
102
RTVSPropertyOp39
 70
     0
102
RTVSPropertyOp40
 70
     0
102
RTVSPropertyOp41
 70
     0
102
RTVSPropertyOp42
 70
     0
102
RTVSPropertyOp43
 70
     0
102
RTVSPropertyOp44
 70
     0
102
RTVSPropertyOp45
 70
     0
102
RTVSPropertyOp46
 70
     0
102
RTVSPropertyOp47
 70
     0
102
RTVSPropertyOp48
 70
     0
102
RTVSPropertyOp49
 70
     0
102
RTVSPropertyOp50
 70
     0
102
RTVSPropertyOp51
 70
     0
102
RTVSPropertyOp52
 70
     0
102
RTVSPropertyOp53
 70
     0
102
RTVSPropertyOp54
 70
     0
102
RTVSPropertyOp55
 70
     0
102
RTVSPropertyOp56
 70
     0
102
RTVSPropertyOp57
 70
     0
102
RTVSPost2010Prop28
280
     0
102
RTVSPost2010PropOp28
 70
     0
102
RTVSPost2010Prop29
280
     1
102
RTVSPost2010PropOp29
 70
     0
102
RTVSPost2010Prop30
280
     1
102
RTVSPost2010PropOp30
 70
     0
102
RTVSPost2010Prop31
280
     0
102
RTVSPost2010PropOp31
 70
     0
102
RTVSPost2010Prop32
280
     0
102
RTVSPost2010PropOp32
 70
     0
102
RTVSPost2010Prop33
280
     0
102
RTVSPost2010PropOp33
 70
     0
102
RTVSPost2010Prop34
280
     0
102
RTVSPost2010PropOp34
 70
     0
102
RTVSPost2010Prop35
280
     0
102
RTVSPost2010PropOp35
 70
     0
102
RTVSPost2010Prop36
280
     0
102
RTVSPost2010PropOp36
 70
     0
102
RTVSPost2010Prop37
 90
       50
102
RTVSPost2010PropOp37
 70
     0
102
RTVSPost2010Prop38
140
0.0
102
RTVSPost2010PropOp38
 70
     0
102
RTVSPost2010Prop39
140
1.0
102
RTVSPost2010PropOp39
 70
     0
102
RTVSPost2010Prop40
 90
        0
102
RTVSPost2010PropOp40
 70
     0
102
RTVSPost2010Prop41ColorIndex
 90
       18
102
RTVSPost2010Prop41ColorRGB
 90
        0
102
RTVSPost2010PropOp41
 70
     0
102
RTVSPost2010Prop42
 90
       50
102
RTVSPost2010PropOp42
 70
     0
102
RTVSPost2010Prop43
 90
        3
102
RTVSPost2010PropOp43
 70
     0
102
RTVSPost2010Prop44ColorIndex
 90
        5
102
RTVSPost2010Prop44ColorRGB
 90
      255
102
RTVSPost2010PropOp44
 70
     0
102
RTVSPost2010Prop45
280
     0
102
RTVSPost2010PropOp45
 70
     0
102
RTVSPost2010Prop46
 90
       50
102
RTVSPost2010PropOp46
 70
     0
102
RTVSPost2010Prop47
 90
       50
102
RTVSPost2010PropOp47
 70
     0
102
RTVSPost2010Prop48
 90
       50
102
RTVSPost2010PropOp48
 70
     0
102
RTVSPost2010Prop49
280
     0
102
RTVSPost2010PropOp49
 70
     0
102
RTVSPost2010Prop50
 90
       50
102
RTVSPost2010PropOp50
 70
     0
102
RTVSPost2010Prop51ColorIndex
 90
      256
102
RTVSPost2010Prop51ColorRGB
 90
-16777216
102
RTVSPost2010PropOp51
 70
     0
102
RTVSPost2010Prop52
140
1.0
102
RTVSPost2010PropOp52
 70
     0
102
RTVSPost2010Prop53
 90
        2
102
RTVSPost2010PropOp53
 70
     0
102
RTVSPost2010Prop54
  1
strokes_ogs.tif
102
RTVSPost2010PropOp54
 70
     0
102
RTVSPost2010Prop55
280
     0
102
RTVSPost2010PropOp55
 70
     0
102
RTVSPost2010Prop56
140
1.0
102
RTVSPost2010PropOp56
 70
     0
102
RTVSPost2010Prop57
140
1.0
102
RTVSPost2010PropOp57
 70
     0
  0
XRECORD
  5
96
102
{ACAD_REACTORS
330
95
102
}
330
95
100
AcDbXrecord
280
     1
102
RTVSPropertyOp0
 70
     1
102
RTVSPropertyOp1
 70
     1
102
RTVSPropertyOp2
 70
     1
102
RTVSPropertyOp3
 70
     1
102
RTVSPropertyOp4
 70
     1
102
RTVSPropertyOp5
 70
     1
102
RTVSPropertyOp6
 70
     1
102
RTVSPropertyOp7
 70
     1
102
RTVSPropertyOp8
 70
     1
102
RTVSPropertyOp9
 70
     1
102
RTVSPropertyOp10
 70
     1
102
RTVSPropertyOp11
 70
     1
102
RTVSPropertyOp12
 70
     1
102
RTVSPropertyOp13
 70
     1
102
RTVSPropertyOp14
 70
     1
102
RTVSPropertyOp15
 70
     1
102
RTVSPropertyOp16
 70
     1
102
RTVSPropertyOp17
 70
     1
102
RTVSPropertyOp18
 70
     1
102
RTVSPropertyOp19
 70
     1
102
RTVSPropertyOp20
 70
     1
102
RTVSPropertyOp21
 70
     1
102
RTVSPropertyOp22
 70
     1
102
RTVSPropertyOp23
 70
     1
102
RTVSPropertyOp24
 70
     1
102
RTVSPropertyOp25
 70
     1
102
RTVSPropertyOp26
 70
     1
102
RTVSPropertyOp27
 70
     1
102
RTVSPropertyOp28
 70
     1
102
RTVSPropertyOp29
 70
     1
102
RTVSPropertyOp30
 70
     1
102
RTVSPropertyOp31
 70
     1
102
RTVSPropertyOp32
 70
     1
102
RTVSPropertyOp33
 70
     1
102
RTVSPropertyOp34
 70
     1
102
RTVSPropertyOp35
 70
     1
102
RTVSPropertyOp36
 70
     1
102
RTVSPropertyOp37
 70
     1
102
RTVSPropertyOp38
 70
     1
102
RTVSPropertyOp39
 70
     1
102
RTVSPropertyOp40
 70
     1
102
RTVSPropertyOp41
 70
     1
102
RTVSPropertyOp42
 70
     1
102
RTVSPropertyOp43
 70
     1
102
RTVSPropertyOp44
 70
     1
102
RTVSPropertyOp45
 70
     1
102
RTVSPropertyOp46
 70
     1
102
RTVSPropertyOp47
 70
     1
102
RTVSPropertyOp48
 70
     1
102
RTVSPropertyOp49
 70
     1
102
RTVSPropertyOp50
 70
     1
102
RTVSPropertyOp51
 70
     0
102
RTVSPropertyOp52
 70
     0
102
RTVSPropertyOp53
 70
     1
102
RTVSPropertyOp54
 70
     1
102
RTVSPropertyOp55
 70
     1
102
RTVSPropertyOp56
 70
     1
102
RTVSPropertyOp57
 70
     1
102
RTVSPost2010Prop28
280
     0
102
RTVSPost2010PropOp28
 70
     1
102
RTVSPost2010Prop29
280
     1
102
RTVSPost2010PropOp29
 70
     1
102
RTVSPost2010Prop30
280
     1
102
RTVSPost2010PropOp30
 70
     1
102
RTVSPost2010Prop31
280
     0
102
RTVSPost2010PropOp31
 70
     1
102
RTVSPost2010Prop32
280
     0
102
RTVSPost2010PropOp32
 70
     1
102
RTVSPost2010Prop33
280
     0
102
RTVSPost2010PropOp33
 70
     1
102
RTVSPost2010Prop34
280
     0
102
RTVSPost2010PropOp34
 70
     1
102
RTVSPost2010Prop35
280
     0
102
RTVSPost2010PropOp35
 70
     1
102
RTVSPost2010Prop36
280
     0
102
RTVSPost2010PropOp36
 70
     1
102
RTVSPost2010Prop37
 90
       50
102
RTVSPost2010PropOp37
 70
     1
102
RTVSPost2010Prop38
140
0.0
102
RTVSPost2010PropOp38
 70
     1
102
RTVSPost2010Prop39
140
1.0
102
RTVSPost2010PropOp39
 70
     1
102
RTVSPost2010Prop40
 90
        0
102
RTVSPost2010PropOp40
 70
     1
102
RTVSPost2010Prop41ColorIndex
 90
       18
102
RTVSPost2010Prop41ColorRGB
 90
        0
102
RTVSPost2010PropOp41
 70
     1
102
RTVSPost2010Prop42
 90
       50
102
RTVSPost2010PropOp42
 70
     1
102
RTVSPost2010Prop43
 90
        3
102
RTVSPost2010PropOp43
 70
     1
102
RTVSPost2010Prop44ColorIndex
 90
        5
102
RTVSPost2010Prop44ColorRGB
 90
      255
102
RTVSPost2010PropOp44
 70
     1
102
RTVSPost2010Prop45
280
     0
102
RTVSPost2010PropOp45
 70
     1
102
RTVSPost2010Prop46
 90
       50
102
RTVSPost2010PropOp46
 70
     1
102
RTVSPost2010Prop47
 90
       50
102
RTVSPost2010PropOp47
 70
     1
102
RTVSPost2010Prop48
 90
       50
102
RTVSPost2010PropOp48
 70
     1
102
RTVSPost2010Prop49
280
     0
102
RTVSPost2010PropOp49
 70
     1
102
RTVSPost2010Prop50
 90
       50
102
RTVSPost2010PropOp50
 70
     1
102
RTVSPost2010Prop51ColorIndex
 90
      256
102
RTVSPost2010Prop51ColorRGB
 90
-16777216
102
RTVSPost2010PropOp51
 70
     0
102
RTVSPost2010Prop52
140
1.0
102
RTVSPost2010PropOp52
 70
     0
102
RTVSPost2010Prop53
 90
        2
102
RTVSPost2010PropOp53
 70
     1
102
RTVSPost2010Prop54
  1
strokes_ogs.tif
102
RTVSPost2010PropOp54
 70
     1
102
RTVSPost2010Prop55
280
     0
102
RTVSPost2010PropOp55
 70
     1
102
RTVSPost2010Prop56
140
1.0
102
RTVSPost2010PropOp56
 70
     1
102
RTVSPost2010Prop57
140
1.0
102
RTVSPost2010PropOp57
 70
     1
  0
XRECORD
  5
B4
102
{ACAD_REACTORS
330
B3
102
}
330
B3
100
AcDbXrecord
280
     1
102
RTVSPropertyOp0
 70
     1
102
RTVSPropertyOp1
 70
     1
102
RTVSPropertyOp2
 70
     1
102
RTVSPropertyOp3
 70
     1
102
RTVSPropertyOp4
 70
     1
102
RTVSPropertyOp5
 70
     1
102
RTVSPropertyOp6
 70
     1
102
RTVSPropertyOp7
 70
     1
102
RTVSPropertyOp8
 70
     1
102
RTVSPropertyOp9
 70
     1
102
RTVSPropertyOp10
 70
     1
102
RTVSPropertyOp11
 70
     1
102
RTVSPropertyOp12
 70
     1
102
RTVSPropertyOp13
 70
     1
102
RTVSPropertyOp14
 70
     1
102
RTVSPropertyOp15
 70
     1
102
RTVSPropertyOp16
 70
     1
102
RTVSPropertyOp17
 70
     1
102
RTVSPropertyOp18
 70
     1
102
RTVSPropertyOp19
 70
     1
102
RTVSPropertyOp20
 70
     1
102
RTVSPropertyOp21
 70
     1
102
RTVSPropertyOp22
 70
     1
102
RTVSPropertyOp23
 70
     1
102
RTVSPropertyOp24
 70
     1
102
RTVSPropertyOp25
 70
     1
102
RTVSPropertyOp26
 70
     1
102
RTVSPropertyOp27
 70
     1
102
RTVSPropertyOp28
 70
     1
102
RTVSPropertyOp29
 70
     1
102
RTVSPropertyOp30
 70
     1
102
RTVSPropertyOp31
 70
     1
102
RTVSPropertyOp32
 70
     1
102
RTVSPropertyOp33
 70
     1
102
RTVSPropertyOp34
 70
     1
102
RTVSPropertyOp35
 70
     1
102
RTVSPropertyOp36
 70
     1
102
RTVSPropertyOp37
 70
     1
102
RTVSPropertyOp38
 70
     1
102
RTVSPropertyOp39
 70
     1
102
RTVSPropertyOp40
 70
     1
102
RTVSPropertyOp41
 70
     1
102
RTVSPropertyOp42
 70
     1
102
RTVSPropertyOp43
 70
     1
102
RTVSPropertyOp44
 70
     1
102
RTVSPropertyOp45
 70
     1
102
RTVSPropertyOp46
 70
     1
102
RTVSPropertyOp47
 70
     1
102
RTVSPropertyOp48
 70
     1
102
RTVSPropertyOp49
 70
     1
102
RTVSPropertyOp50
 70
     1
102
RTVSPropertyOp51
 70
     0
102
RTVSPropertyOp52
 70
     0
102
RTVSPropertyOp53
 70
     1
102
RTVSPropertyOp54
 70
     1
102
RTVSPropertyOp55
 70
     1
102
RTVSPropertyOp56
 70
     1
102
RTVSPropertyOp57
 70
     1
102
RTVSPost2010Prop28
280
     0
102
RTVSPost2010PropOp28
 70
     1
102
RTVSPost2010Prop29
280
     1
102
RTVSPost2010PropOp29
 70
     1
102
RTVSPost2010Prop30
280
     1
102
RTVSPost2010PropOp30
 70
     1
102
RTVSPost2010Prop31
280
     0
102
RTVSPost2010PropOp31
 70
     1
102
RTVSPost2010Prop32
280
     0
102
RTVSPost2010PropOp32
 70
     1
102
RTVSPost2010Prop33
280
     0
102
RTVSPost2010PropOp33
 70
     1
102
RTVSPost2010Prop34
280
     0
102
RTVSPost2010PropOp34
 70
     1
102
RTVSPost2010Prop35
280
     0
102
RTVSPost2010PropOp35
 70
     1
102
RTVSPost2010Prop36
280
     0
102
RTVSPost2010PropOp36
 70
     1
102
RTVSPost2010Prop37
 90
       50
102
RTVSPost2010PropOp37
 70
     1
102
RTVSPost2010Prop38
140
0.0
102
RTVSPost2010PropOp38
 70
     1
102
RTVSPost2010Prop39
140
1.0
102
RTVSPost2010PropOp39
 70
     1
102
RTVSPost2010Prop40
 90
        0
102
RTVSPost2010PropOp40
 70
     1
102
RTVSPost2010Prop41ColorIndex
 90
       18
102
RTVSPost2010Prop41ColorRGB
 90
        0
102
RTVSPost2010PropOp41
 70
     1
102
RTVSPost2010Prop42
 90
       50
102
RTVSPost2010PropOp42
 70
     1
102
RTVSPost2010Prop43
 90
        3
102
RTVSPost2010PropOp43
 70
     1
102
RTVSPost2010Prop44ColorIndex
 90
        5
102
RTVSPost2010Prop44ColorRGB
 90
      255
102
RTVSPost2010PropOp44
 70
     1
102
RTVSPost2010Prop45
280
     0
102
RTVSPost2010PropOp45
 70
     1
102
RTVSPost2010Prop46
 90
       50
102
RTVSPost2010PropOp46
 70
     1
102
RTVSPost2010Prop47
 90
       50
102
RTVSPost2010PropOp47
 70
     1
102
RTVSPost2010Prop48
 90
       50
102
RTVSPost2010PropOp48
 70
     1
102
RTVSPost2010Prop49
280
     0
102
RTVSPost2010PropOp49
 70
     1
102
RTVSPost2010Prop50
 90
       50
102
RTVSPost2010PropOp50
 70
     1
102
RTVSPost2010Prop51ColorIndex
 90
      256
102
RTVSPost2010Prop51ColorRGB
 90
-16777216
102
RTVSPost2010PropOp51
 70
     0
102
RTVSPost2010Prop52
140
1.0
102
RTVSPost2010PropOp52
 70
     0
102
RTVSPost2010Prop53
 90
        2
102
RTVSPost2010PropOp53
 70
     1
102
RTVSPost2010Prop54
  1
strokes_ogs.tif
102
RTVSPost2010PropOp54
 70
     1
102
RTVSPost2010Prop55
280
     0
102
RTVSPost2010PropOp55
 70
     1
102
RTVSPost2010Prop56
140
1.0
102
RTVSPost2010PropOp56
 70
     1
102
RTVSPost2010Prop57
140
1.0
102
RTVSPost2010PropOp57
 70
     1
  0
XRECORD
  5
B2
102
{ACAD_REACTORS
330
B1
102
}
330
B1
100
AcDbXrecord
280
     1
102
RTVSPropertyOp0
 70
     1
102
RTVSPropertyOp1
 70
     1
102
RTVSPropertyOp2
 70
     1
102
RTVSPropertyOp3
 70
     1
102
RTVSPropertyOp4
 70
     1
102
RTVSPropertyOp5
 70
     1
102
RTVSPropertyOp6
 70
     1
102
RTVSPropertyOp7
 70
     1
102
RTVSPropertyOp8
 70
     1
102
RTVSPropertyOp9
 70
     1
102
RTVSPropertyOp10
 70
     1
102
RTVSPropertyOp11
 70
     1
102
RTVSPropertyOp12
 70
     1
102
RTVSPropertyOp13
 70
     1
102
RTVSPropertyOp14
 70
     1
102
RTVSPropertyOp15
 70
     1
102
RTVSPropertyOp16
 70
     1
102
RTVSPropertyOp17
 70
     1
102
RTVSPropertyOp18
 70
     1
102
RTVSPropertyOp19
 70
     1
102
RTVSPropertyOp20
 70
     1
102
RTVSPropertyOp21
 70
     1
102
RTVSPropertyOp22
 70
     1
102
RTVSPropertyOp23
 70
     1
102
RTVSPropertyOp24
 70
     1
102
RTVSPropertyOp25
 70
     1
102
RTVSPropertyOp26
 70
     1
102
RTVSPropertyOp27
 70
     1
102
RTVSPropertyOp28
 70
     1
102
RTVSPropertyOp29
 70
     1
102
RTVSPropertyOp30
 70
     1
102
RTVSPropertyOp31
 70
     1
102
RTVSPropertyOp32
 70
     1
102
RTVSPropertyOp33
 70
     1
102
RTVSPropertyOp34
 70
     1
102
RTVSPropertyOp35
 70
     1
102
RTVSPropertyOp36
 70
     1
102
RTVSPropertyOp37
 70
     1
102
RTVSPropertyOp38
 70
     1
102
RTVSPropertyOp39
 70
     1
102
RTVSPropertyOp40
 70
     1
102
RTVSPropertyOp41
 70
     1
102
RTVSPropertyOp42
 70
     1
102
RTVSPropertyOp43
 70
     1
102
RTVSPropertyOp44
 70
     1
102
RTVSPropertyOp45
 70
     1
102
RTVSPropertyOp46
 70
     1
102
RTVSPropertyOp47
 70
     1
102
RTVSPropertyOp48
 70
     1
102
RTVSPropertyOp49
 70
     1
102
RTVSPropertyOp50
 70
     1
102
RTVSPropertyOp51
 70
     0
102
RTVSPropertyOp52
 70
     0
102
RTVSPropertyOp53
 70
     1
102
RTVSPropertyOp54
 70
     1
102
RTVSPropertyOp55
 70
     1
102
RTVSPropertyOp56
 70
     1
102
RTVSPropertyOp57
 70
     1
102
RTVSPost2010Prop28
280
     0
102
RTVSPost2010PropOp28
 70
     1
102
RTVSPost2010Prop29
280
     1
102
RTVSPost2010PropOp29
 70
     1
102
RTVSPost2010Prop30
280
     1
102
RTVSPost2010PropOp30
 70
     1
102
RTVSPost2010Prop31
280
     0
102
RTVSPost2010PropOp31
 70
     1
102
RTVSPost2010Prop32
280
     0
102
RTVSPost2010PropOp32
 70
     1
102
RTVSPost2010Prop33
280
     0
102
RTVSPost2010PropOp33
 70
     1
102
RTVSPost2010Prop34
280
     0
102
RTVSPost2010PropOp34
 70
     1
102
RTVSPost2010Prop35
280
     0
102
RTVSPost2010PropOp35
 70
     1
102
RTVSPost2010Prop36
280
     0
102
RTVSPost2010PropOp36
 70
     1
102
RTVSPost2010Prop37
 90
       50
102
RTVSPost2010PropOp37
 70
     1
102
RTVSPost2010Prop38
140
0.0
102
RTVSPost2010PropOp38
 70
     1
102
RTVSPost2010Prop39
140
1.0
102
RTVSPost2010PropOp39
 70
     1
102
RTVSPost2010Prop40
 90
        0
102
RTVSPost2010PropOp40
 70
     1
102
RTVSPost2010Prop41ColorIndex
 90
       18
102
RTVSPost2010Prop41ColorRGB
 90
        0
102
RTVSPost2010PropOp41
 70
     1
102
RTVSPost2010Prop42
 90
       50
102
RTVSPost2010PropOp42
 70
     1
102
RTVSPost2010Prop43
 90
        3
102
RTVSPost2010PropOp43
 70
     1
102
RTVSPost2010Prop44ColorIndex
 90
        5
102
RTVSPost2010Prop44ColorRGB
 90
      255
102
RTVSPost2010PropOp44
 70
     1
102
RTVSPost2010Prop45
280
     0
102
RTVSPost2010PropOp45
 70
     1
102
RTVSPost2010Prop46
 90
       50
102
RTVSPost2010PropOp46
 70
     1
102
RTVSPost2010Prop47
 90
       50
102
RTVSPost2010PropOp47
 70
     1
102
RTVSPost2010Prop48
 90
       50
102
RTVSPost2010PropOp48
 70
     1
102
RTVSPost2010Prop49
280
     0
102
RTVSPost2010PropOp49
 70
     1
102
RTVSPost2010Prop50
 90
       50
102
RTVSPost2010PropOp50
 70
     1
102
RTVSPost2010Prop51ColorIndex
 90
      256
102
RTVSPost2010Prop51ColorRGB
 90
-16777216
102
RTVSPost2010PropOp51
 70
     0
102
RTVSPost2010Prop52
140
1.0
102
RTVSPost2010PropOp52
 70
     0
102
RTVSPost2010Prop53
 90
        2
102
RTVSPost2010PropOp53
 70
     1
102
RTVSPost2010Prop54
  1
strokes_ogs.tif
102
RTVSPost2010PropOp54
 70
     1
102
RTVSPost2010Prop55
280
     0
102
RTVSPost2010PropOp55
 70
     1
102
RTVSPost2010Prop56
140
1.0
102
RTVSPost2010PropOp56
 70
     1
102
RTVSPost2010Prop57
140
1.0
102
RTVSPost2010PropOp57
 70
     1
  0
XRECORD
  5
AC
102
{ACAD_REACTORS
330
AB
102
}
330
AB
100
AcDbXrecord
280
     1
102
RTVSPropertyOp0
 70
     1
102
RTVSPropertyOp1
 70
     1
102
RTVSPropertyOp2
 70
     1
102
RTVSPropertyOp3
 70
     1
102
RTVSPropertyOp4
 70
     1
102
RTVSPropertyOp5
 70
     1
102
RTVSPropertyOp6
 70
     1
102
RTVSPropertyOp7
 70
     1
102
RTVSPropertyOp8
 70
     1
102
RTVSPropertyOp9
 70
     1
102
RTVSPropertyOp10
 70
     1
102
RTVSPropertyOp11
 70
     1
102
RTVSPropertyOp12
 70
     1
102
RTVSPropertyOp13
 70
     1
102
RTVSPropertyOp14
 70
     1
102
RTVSPropertyOp15
 70
     1
102
RTVSPropertyOp16
 70
     1
102
RTVSPropertyOp17
 70
     1
102
RTVSPropertyOp18
 70
     1
102
RTVSPropertyOp19
 70
     1
102
RTVSPropertyOp20
 70
     1
102
RTVSPropertyOp21
 70
     1
102
RTVSPropertyOp22
 70
     1
102
RTVSPropertyOp23
 70
     1
102
RTVSPropertyOp24
 70
     1
102
RTVSPropertyOp25
 70
     1
102
RTVSPropertyOp26
 70
     1
102
RTVSPropertyOp27
 70
     1
102
RTVSPropertyOp28
 70
     1
102
RTVSPropertyOp29
 70
     1
102
RTVSPropertyOp30
 70
     1
102
RTVSPropertyOp31
 70
     1
102
RTVSPropertyOp32
 70
     1
102
RTVSPropertyOp33
 70
     1
102
RTVSPropertyOp34
 70
     1
102
RTVSPropertyOp35
 70
     1
102
RTVSPropertyOp36
 70
     1
102
RTVSPropertyOp37
 70
     1
102
RTVSPropertyOp38
 70
     1
102
RTVSPropertyOp39
 70
     1
102
RTVSPropertyOp40
 70
     1
102
RTVSPropertyOp41
 70
     1
102
RTVSPropertyOp42
 70
     1
102
RTVSPropertyOp43
 70
     1
102
RTVSPropertyOp44
 70
     1
102
RTVSPropertyOp45
 70
     1
102
RTVSPropertyOp46
 70
     1
102
RTVSPropertyOp47
 70
     1
102
RTVSPropertyOp48
 70
     1
102
RTVSPropertyOp49
 70
     1
102
RTVSPropertyOp50
 70
     1
102
RTVSPropertyOp51
 70
     0
102
RTVSPropertyOp52
 70
     0
102
RTVSPropertyOp53
 70
     1
102
RTVSPropertyOp54
 70
     1
102
RTVSPropertyOp55
 70
     1
102
RTVSPropertyOp56
 70
     1
102
RTVSPropertyOp57
 70
     1
102
RTVSPost2010Prop28
280
     0
102
RTVSPost2010PropOp28
 70
     1
102
RTVSPost2010Prop29
280
     1
102
RTVSPost2010PropOp29
 70
     1
102
RTVSPost2010Prop30
280
     1
102
RTVSPost2010PropOp30
 70
     1
102
RTVSPost2010Prop31
280
     0
102
RTVSPost2010PropOp31
 70
     1
102
RTVSPost2010Prop32
280
     0
102
RTVSPost2010PropOp32
 70
     1
102
RTVSPost2010Prop33
280
     0
102
RTVSPost2010PropOp33
 70
     1
102
RTVSPost2010Prop34
280
     0
102
RTVSPost2010PropOp34
 70
     1
102
RTVSPost2010Prop35
280
     0
102
RTVSPost2010PropOp35
 70
     1
102
RTVSPost2010Prop36
280
     0
102
RTVSPost2010PropOp36
 70
     1
102
RTVSPost2010Prop37
 90
       50
102
RTVSPost2010PropOp37
 70
     1
102
RTVSPost2010Prop38
140
0.0
102
RTVSPost2010PropOp38
 70
     1
102
RTVSPost2010Prop39
140
1.0
102
RTVSPost2010PropOp39
 70
     1
102
RTVSPost2010Prop40
 90
        0
102
RTVSPost2010PropOp40
 70
     1
102
RTVSPost2010Prop41ColorIndex
 90
       18
102
RTVSPost2010Prop41ColorRGB
 90
        0
102
RTVSPost2010PropOp41
 70
     1
102
RTVSPost2010Prop42
 90
       50
102
RTVSPost2010PropOp42
 70
     1
102
RTVSPost2010Prop43
 90
        3
102
RTVSPost2010PropOp43
 70
     1
102
RTVSPost2010Prop44ColorIndex
 90
        5
102
RTVSPost2010Prop44ColorRGB
 90
      255
102
RTVSPost2010PropOp44
 70
     1
102
RTVSPost2010Prop45
280
     0
102
RTVSPost2010PropOp45
 70
     1
102
RTVSPost2010Prop46
 90
       50
102
RTVSPost2010PropOp46
 70
     1
102
RTVSPost2010Prop47
 90
       50
102
RTVSPost2010PropOp47
 70
     1
102
RTVSPost2010Prop48
 90
       50
102
RTVSPost2010PropOp48
 70
     1
102
RTVSPost2010Prop49
280
     0
102
RTVSPost2010PropOp49
 70
     1
102
RTVSPost2010Prop50
 90
       50
102
RTVSPost2010PropOp50
 70
     1
102
RTVSPost2010Prop51ColorIndex
 90
      256
102
RTVSPost2010Prop51ColorRGB
 90
-16777216
102
RTVSPost2010PropOp51
 70
     0
102
RTVSPost2010Prop52
140
1.0
102
RTVSPost2010PropOp52
 70
     0
102
RTVSPost2010Prop53
 90
        2
102
RTVSPost2010PropOp53
 70
     1
102
RTVSPost2010Prop54
  1
strokes_ogs.tif
102
RTVSPost2010PropOp54
 70
     1
102
RTVSPost2010Prop55
280
     0
102
RTVSPost2010PropOp55
 70
     1
102
RTVSPost2010Prop56
140
1.0
102
RTVSPost2010PropOp56
 70
     1
102
RTVSPost2010Prop57
140
1.0
102
RTVSPost2010PropOp57
 70
     1
  0
XRECORD
  5
AE
102
{ACAD_REACTORS
330
AD
102
}
330
AD
100
AcDbXrecord
280
     1
102
RTVSPropertyOp0
 70
     1
102
RTVSPropertyOp1
 70
     1
102
RTVSPropertyOp2
 70
     1
102
RTVSPropertyOp3
 70
     1
102
RTVSPropertyOp4
 70
     1
102
RTVSPropertyOp5
 70
     1
102
RTVSPropertyOp6
 70
     1
102
RTVSPropertyOp7
 70
     1
102
RTVSPropertyOp8
 70
     1
102
RTVSPropertyOp9
 70
     1
102
RTVSPropertyOp10
 70
     1
102
RTVSPropertyOp11
 70
     1
102
RTVSPropertyOp12
 70
     1
102
RTVSPropertyOp13
 70
     1
102
RTVSPropertyOp14
 70
     1
102
RTVSPropertyOp15
 70
     1
102
RTVSPropertyOp16
 70
     1
102
RTVSPropertyOp17
 70
     1
102
RTVSPropertyOp18
 70
     1
102
RTVSPropertyOp19
 70
     1
102
RTVSPropertyOp20
 70
     1
102
RTVSPropertyOp21
 70
     1
102
RTVSPropertyOp22
 70
     1
102
RTVSPropertyOp23
 70
     1
102
RTVSPropertyOp24
 70
     1
102
RTVSPropertyOp25
 70
     1
102
RTVSPropertyOp26
 70
     1
102
RTVSPropertyOp27
 70
     1
102
RTVSPropertyOp28
 70
     1
102
RTVSPropertyOp29
 70
     1
102
RTVSPropertyOp30
 70
     1
102
RTVSPropertyOp31
 70
     1
102
RTVSPropertyOp32
 70
     1
102
RTVSPropertyOp33
 70
     1
102
RTVSPropertyOp34
 70
     1
102
RTVSPropertyOp35
 70
     1
102
RTVSPropertyOp36
 70
     1
102
RTVSPropertyOp37
 70
     1
102
RTVSPropertyOp38
 70
     1
102
RTVSPropertyOp39
 70
     1
102
RTVSPropertyOp40
 70
     1
102
RTVSPropertyOp41
 70
     1
102
RTVSPropertyOp42
 70
     1
102
RTVSPropertyOp43
 70
     1
102
RTVSPropertyOp44
 70
     1
102
RTVSPropertyOp45
 70
     1
102
RTVSPropertyOp46
 70
     1
102
RTVSPropertyOp47
 70
     1
102
RTVSPropertyOp48
 70
     1
102
RTVSPropertyOp49
 70
     1
102
RTVSPropertyOp50
 70
     1
102
RTVSPropertyOp51
 70
     0
102
RTVSPropertyOp52
 70
     0
102
RTVSPropertyOp53
 70
     1
102
RTVSPropertyOp54
 70
     1
102
RTVSPropertyOp55
 70
     1
102
RTVSPropertyOp56
 70
     1
102
RTVSPropertyOp57
 70
     1
102
RTVSPost2010Prop28
280
     0
102
RTVSPost2010PropOp28
 70
     1
102
RTVSPost2010Prop29
280
     1
102
RTVSPost2010PropOp29
 70
     1
102
RTVSPost2010Prop30
280
     1
102
RTVSPost2010PropOp30
 70
     1
102
RTVSPost2010Prop31
280
     0
102
RTVSPost2010PropOp31
 70
     1
102
RTVSPost2010Prop32
280
     0
102
RTVSPost2010PropOp32
 70
     1
102
RTVSPost2010Prop33
280
     0
102
RTVSPost2010PropOp33
 70
     1
102
RTVSPost2010Prop34
280
     0
102
RTVSPost2010PropOp34
 70
     1
102
RTVSPost2010Prop35
280
     0
102
RTVSPost2010PropOp35
 70
     1
102
RTVSPost2010Prop36
280
     0
102
RTVSPost2010PropOp36
 70
     1
102
RTVSPost2010Prop37
 90
       50
102
RTVSPost2010PropOp37
 70
     1
102
RTVSPost2010Prop38
140
0.0
102
RTVSPost2010PropOp38
 70
     1
102
RTVSPost2010Prop39
140
1.0
102
RTVSPost2010PropOp39
 70
     1
102
RTVSPost2010Prop40
 90
        0
102
RTVSPost2010PropOp40
 70
     1
102
RTVSPost2010Prop41ColorIndex
 90
       18
102
RTVSPost2010Prop41ColorRGB
 90
        0
102
RTVSPost2010PropOp41
 70
     1
102
RTVSPost2010Prop42
 90
       50
102
RTVSPost2010PropOp42
 70
     1
102
RTVSPost2010Prop43
 90
        3
102
RTVSPost2010PropOp43
 70
     1
102
RTVSPost2010Prop44ColorIndex
 90
        5
102
RTVSPost2010Prop44ColorRGB
 90
      255
102
RTVSPost2010PropOp44
 70
     1
102
RTVSPost2010Prop45
280
     0
102
RTVSPost2010PropOp45
 70
     1
102
RTVSPost2010Prop46
 90
       50
102
RTVSPost2010PropOp46
 70
     1
102
RTVSPost2010Prop47
 90
       50
102
RTVSPost2010PropOp47
 70
     1
102
RTVSPost2010Prop48
 90
       50
102
RTVSPost2010PropOp48
 70
     1
102
RTVSPost2010Prop49
280
     0
102
RTVSPost2010PropOp49
 70
     1
102
RTVSPost2010Prop50
 90
       50
102
RTVSPost2010PropOp50
 70
     1
102
RTVSPost2010Prop51ColorIndex
 90
      256
102
RTVSPost2010Prop51ColorRGB
 90
-16777216
102
RTVSPost2010PropOp51
 70
     0
102
RTVSPost2010Prop52
140
1.0
102
RTVSPost2010PropOp52
 70
     0
102
RTVSPost2010Prop53
 90
        2
102
RTVSPost2010PropOp53
 70
     1
102
RTVSPost2010Prop54
  1
strokes_ogs.tif
102
RTVSPost2010PropOp54
 70
     1
102
RTVSPost2010Prop55
280
     0
102
RTVSPost2010PropOp55
 70
     1
102
RTVSPost2010Prop56
140
1.0
102
RTVSPost2010PropOp56
 70
     1
102
RTVSPost2010Prop57
140
1.0
102
RTVSPost2010PropOp57
 70
     1
  0
XRECORD
  5
9E
102
{ACAD_REACTORS
330
9D
102
}
330
9D
100
AcDbXrecord
280
     1
102
RTVSPropertyOp0
 70
     1
102
RTVSPropertyOp1
 70
     1
102
RTVSPropertyOp2
 70
     1
102
RTVSPropertyOp3
 70
     1
102
RTVSPropertyOp4
 70
     1
102
RTVSPropertyOp5
 70
     1
102
RTVSPropertyOp6
 70
     1
102
RTVSPropertyOp7
 70
     1
102
RTVSPropertyOp8
 70
     1
102
RTVSPropertyOp9
 70
     1
102
RTVSPropertyOp10
 70
     1
102
RTVSPropertyOp11
 70
     1
102
RTVSPropertyOp12
 70
     1
102
RTVSPropertyOp13
 70
     1
102
RTVSPropertyOp14
 70
     1
102
RTVSPropertyOp15
 70
     1
102
RTVSPropertyOp16
 70
     1
102
RTVSPropertyOp17
 70
     1
102
RTVSPropertyOp18
 70
     1
102
RTVSPropertyOp19
 70
     1
102
RTVSPropertyOp20
 70
     1
102
RTVSPropertyOp21
 70
     1
102
RTVSPropertyOp22
 70
     1
102
RTVSPropertyOp23
 70
     1
102
RTVSPropertyOp24
 70
     1
102
RTVSPropertyOp25
 70
     1
102
RTVSPropertyOp26
 70
     1
102
RTVSPropertyOp27
 70
     1
102
RTVSPropertyOp28
 70
     1
102
RTVSPropertyOp29
 70
     1
102
RTVSPropertyOp30
 70
     1
102
RTVSPropertyOp31
 70
     1
102
RTVSPropertyOp32
 70
     1
102
RTVSPropertyOp33
 70
     1
102
RTVSPropertyOp34
 70
     1
102
RTVSPropertyOp35
 70
     1
102
RTVSPropertyOp36
 70
     1
102
RTVSPropertyOp37
 70
     1
102
RTVSPropertyOp38
 70
     1
102
RTVSPropertyOp39
 70
     1
102
RTVSPropertyOp40
 70
     1
102
RTVSPropertyOp41
 70
     1
102
RTVSPropertyOp42
 70
     1
102
RTVSPropertyOp43
 70
     1
102
RTVSPropertyOp44
 70
     1
102
RTVSPropertyOp45
 70
     1
102
RTVSPropertyOp46
 70
     1
102
RTVSPropertyOp47
 70
     1
102
RTVSPropertyOp48
 70
     1
102
RTVSPropertyOp49
 70
     1
102
RTVSPropertyOp50
 70
     1
102
RTVSPropertyOp51
 70
     0
102
RTVSPropertyOp52
 70
     0
102
RTVSPropertyOp53
 70
     1
102
RTVSPropertyOp54
 70
     1
102
RTVSPropertyOp55
 70
     1
102
RTVSPropertyOp56
 70
     1
102
RTVSPropertyOp57
 70
     1
102
RTVSPost2010Prop28
280
     0
102
RTVSPost2010PropOp28
 70
     1
102
RTVSPost2010Prop29
280
     1
102
RTVSPost2010PropOp29
 70
     1
102
RTVSPost2010Prop30
280
     1
102
RTVSPost2010PropOp30
 70
     1
102
RTVSPost2010Prop31
280
     0
102
RTVSPost2010PropOp31
 70
     1
102
RTVSPost2010Prop32
280
     0
102
RTVSPost2010PropOp32
 70
     1
102
RTVSPost2010Prop33
280
     0
102
RTVSPost2010PropOp33
 70
     1
102
RTVSPost2010Prop34
280
     0
102
RTVSPost2010PropOp34
 70
     1
102
RTVSPost2010Prop35
280
     0
102
RTVSPost2010PropOp35
 70
     1
102
RTVSPost2010Prop36
280
     0
102
RTVSPost2010PropOp36
 70
     1
102
RTVSPost2010Prop37
 90
       50
102
RTVSPost2010PropOp37
 70
     1
102
RTVSPost2010Prop38
140
0.0
102
RTVSPost2010PropOp38
 70
     1
102
RTVSPost2010Prop39
140
1.0
102
RTVSPost2010PropOp39
 70
     1
102
RTVSPost2010Prop40
 90
        0
102
RTVSPost2010PropOp40
 70
     1
102
RTVSPost2010Prop41ColorIndex
 90
       18
102
RTVSPost2010Prop41ColorRGB
 90
        0
102
RTVSPost2010PropOp41
 70
     1
102
RTVSPost2010Prop42
 90
       50
102
RTVSPost2010PropOp42
 70
     1
102
RTVSPost2010Prop43
 90
        3
102
RTVSPost2010PropOp43
 70
     1
102
RTVSPost2010Prop44ColorIndex
 90
        5
102
RTVSPost2010Prop44ColorRGB
 90
      255
102
RTVSPost2010PropOp44
 70
     1
102
RTVSPost2010Prop45
280
     0
102
RTVSPost2010PropOp45
 70
     1
102
RTVSPost2010Prop46
 90
       50
102
RTVSPost2010PropOp46
 70
     1
102
RTVSPost2010Prop47
 90
       50
102
RTVSPost2010PropOp47
 70
     1
102
RTVSPost2010Prop48
 90
       50
102
RTVSPost2010PropOp48
 70
     1
102
RTVSPost2010Prop49
280
     0
102
RTVSPost2010PropOp49
 70
     1
102
RTVSPost2010Prop50
 90
       50
102
RTVSPost2010PropOp50
 70
     1
102
RTVSPost2010Prop51ColorIndex
 90
      256
102
RTVSPost2010Prop51ColorRGB
 90
-16777216
102
RTVSPost2010PropOp51
 70
     0
102
RTVSPost2010Prop52
140
1.0
102
RTVSPost2010PropOp52
 70
     0
102
RTVSPost2010Prop53
 90
        2
102
RTVSPost2010PropOp53
 70
     1
102
RTVSPost2010Prop54
  1
strokes_ogs.tif
102
RTVSPost2010PropOp54
 70
     1
102
RTVSPost2010Prop55
280
     0
102
RTVSPost2010PropOp55
 70
     1
102
RTVSPost2010Prop56
140
1.0
102
RTVSPost2010PropOp56
 70
     1
102
RTVSPost2010Prop57
140
1.0
102
RTVSPost2010PropOp57
 70
     1
  0
XRECORD
  5
90
102
{ACAD_REACTORS
330
8F
102
}
330
8F
100
AcDbXrecord
280
     1
102
RTVSPropertyOp0
 70
     1
102
RTVSPropertyOp1
 70
     1
102
RTVSPropertyOp2
 70
     1
102
RTVSPropertyOp3
 70
     1
102
RTVSPropertyOp4
 70
     1
102
RTVSPropertyOp5
 70
     1
102
RTVSPropertyOp6
 70
     1
102
RTVSPropertyOp7
 70
     1
102
RTVSPropertyOp8
 70
     1
102
RTVSPropertyOp9
 70
     1
102
RTVSPropertyOp10
 70
     1
102
RTVSPropertyOp11
 70
     1
102
RTVSPropertyOp12
 70
     1
102
RTVSPropertyOp13
 70
     1
102
RTVSPropertyOp14
 70
     1
102
RTVSPropertyOp15
 70
     1
102
RTVSPropertyOp16
 70
     1
102
RTVSPropertyOp17
 70
     1
102
RTVSPropertyOp18
 70
     1
102
RTVSPropertyOp19
 70
     1
102
RTVSPropertyOp20
 70
     1
102
RTVSPropertyOp21
 70
     1
102
RTVSPropertyOp22
 70
     1
102
RTVSPropertyOp23
 70
     1
102
RTVSPropertyOp24
 70
     1
102
RTVSPropertyOp25
 70
     1
102
RTVSPropertyOp26
 70
     1
102
RTVSPropertyOp27
 70
     1
102
RTVSPropertyOp28
 70
     1
102
RTVSPropertyOp29
 70
     1
102
RTVSPropertyOp30
 70
     1
102
RTVSPropertyOp31
 70
     1
102
RTVSPropertyOp32
 70
     1
102
RTVSPropertyOp33
 70
     1
102
RTVSPropertyOp34
 70
     1
102
RTVSPropertyOp35
 70
     1
102
RTVSPropertyOp36
 70
     1
102
RTVSPropertyOp37
 70
     1
102
RTVSPropertyOp38
 70
     1
102
RTVSPropertyOp39
 70
     1
102
RTVSPropertyOp40
 70
     1
102
RTVSPropertyOp41
 70
     1
102
RTVSPropertyOp42
 70
     1
102
RTVSPropertyOp43
 70
     1
102
RTVSPropertyOp44
 70
     1
102
RTVSPropertyOp45
 70
     1
102
RTVSPropertyOp46
 70
     1
102
RTVSPropertyOp47
 70
     1
102
RTVSPropertyOp48
 70
     1
102
RTVSPropertyOp49
 70
     1
102
RTVSPropertyOp50
 70
     1
102
RTVSPropertyOp51
 70
     0
102
RTVSPropertyOp52
 70
     0
102
RTVSPropertyOp53
 70
     1
102
RTVSPropertyOp54
 70
     1
102
RTVSPropertyOp55
 70
     1
102
RTVSPropertyOp56
 70
     1
102
RTVSPropertyOp57
 70
     1
102
RTVSPost2010Prop28
280
     0
102
RTVSPost2010PropOp28
 70
     1
102
RTVSPost2010Prop29
280
     1
102
RTVSPost2010PropOp29
 70
     1
102
RTVSPost2010Prop30
280
     1
102
RTVSPost2010PropOp30
 70
     1
102
RTVSPost2010Prop31
280
     0
102
RTVSPost2010PropOp31
 70
     1
102
RTVSPost2010Prop32
280
     0
102
RTVSPost2010PropOp32
 70
     1
102
RTVSPost2010Prop33
280
     0
102
RTVSPost2010PropOp33
 70
     1
102
RTVSPost2010Prop34
280
     0
102
RTVSPost2010PropOp34
 70
     1
102
RTVSPost2010Prop35
280
     0
102
RTVSPost2010PropOp35
 70
     1
102
RTVSPost2010Prop36
280
     0
102
RTVSPost2010PropOp36
 70
     1
102
RTVSPost2010Prop37
 90
       50
102
RTVSPost2010PropOp37
 70
     1
102
RTVSPost2010Prop38
140
0.0
102
RTVSPost2010PropOp38
 70
     1
102
RTVSPost2010Prop39
140
1.0
102
RTVSPost2010PropOp39
 70
     1
102
RTVSPost2010Prop40
 90
        0
102
RTVSPost2010PropOp40
 70
     1
102
RTVSPost2010Prop41ColorIndex
 90
       18
102
RTVSPost2010Prop41ColorRGB
 90
        0
102
RTVSPost2010PropOp41
 70
     1
102
RTVSPost2010Prop42
 90
       50
102
RTVSPost2010PropOp42
 70
     1
102
RTVSPost2010Prop43
 90
        3
102
RTVSPost2010PropOp43
 70
     1
102
RTVSPost2010Prop44ColorIndex
 90
        5
102
RTVSPost2010Prop44ColorRGB
 90
      255
102
RTVSPost2010PropOp44
 70
     1
102
RTVSPost2010Prop45
280
     0
102
RTVSPost2010PropOp45
 70
     1
102
RTVSPost2010Prop46
 90
       50
102
RTVSPost2010PropOp46
 70
     1
102
RTVSPost2010Prop47
 90
       50
102
RTVSPost2010PropOp47
 70
     1
102
RTVSPost2010Prop48
 90
       50
102
RTVSPost2010PropOp48
 70
     1
102
RTVSPost2010Prop49
280
     0
102
RTVSPost2010PropOp49
 70
     1
102
RTVSPost2010Prop50
 90
       50
102
RTVSPost2010PropOp50
 70
     1
102
RTVSPost2010Prop51ColorIndex
 90
      256
102
RTVSPost2010Prop51ColorRGB
 90
-16777216
102
RTVSPost2010PropOp51
 70
     0
102
RTVSPost2010Prop52
140
1.0
102
RTVSPost2010PropOp52
 70
     0
102
RTVSPost2010Prop53
 90
        2
102
RTVSPost2010PropOp53
 70
     1
102
RTVSPost2010Prop54
  1
strokes_ogs.tif
102
RTVSPost2010PropOp54
 70
     1
102
RTVSPost2010Prop55
280
     0
102
RTVSPost2010PropOp55
 70
     1
102
RTVSPost2010Prop56
140
1.0
102
RTVSPost2010PropOp56
 70
     1
102
RTVSPost2010Prop57
140
1.0
102
RTVSPost2010PropOp57
 70
     1
  0
XRECORD
  5
B0
102
{ACAD_REACTORS
330
AF
102
}
330
AF
100
AcDbXrecord
280
     1
102
RTVSPropertyOp0
 70
     1
102
RTVSPropertyOp1
 70
     1
102
RTVSPropertyOp2
 70
     1
102
RTVSPropertyOp3
 70
     1
102
RTVSPropertyOp4
 70
     1
102
RTVSPropertyOp5
 70
     1
102
RTVSPropertyOp6
 70
     1
102
RTVSPropertyOp7
 70
     1
102
RTVSPropertyOp8
 70
     1
102
RTVSPropertyOp9
 70
     1
102
RTVSPropertyOp10
 70
     1
102
RTVSPropertyOp11
 70
     1
102
RTVSPropertyOp12
 70
     1
102
RTVSPropertyOp13
 70
     1
102
RTVSPropertyOp14
 70
     1
102
RTVSPropertyOp15
 70
     1
102
RTVSPropertyOp16
 70
     1
102
RTVSPropertyOp17
 70
     1
102
RTVSPropertyOp18
 70
     1
102
RTVSPropertyOp19
 70
     1
102
RTVSPropertyOp20
 70
     1
102
RTVSPropertyOp21
 70
     1
102
RTVSPropertyOp22
 70
     1
102
RTVSPropertyOp23
 70
     1
102
RTVSPropertyOp24
 70
     1
102
RTVSPropertyOp25
 70
     1
102
RTVSPropertyOp26
 70
     1
102
RTVSPropertyOp27
 70
     1
102
RTVSPropertyOp28
 70
     1
102
RTVSPropertyOp29
 70
     1
102
RTVSPropertyOp30
 70
     1
102
RTVSPropertyOp31
 70
     1
102
RTVSPropertyOp32
 70
     1
102
RTVSPropertyOp33
 70
     1
102
RTVSPropertyOp34
 70
     1
102
RTVSPropertyOp35
 70
     1
102
RTVSPropertyOp36
 70
     1
102
RTVSPropertyOp37
 70
     1
102
RTVSPropertyOp38
 70
     1
102
RTVSPropertyOp39
 70
     1
102
RTVSPropertyOp40
 70
     1
102
RTVSPropertyOp41
 70
     1
102
RTVSPropertyOp42
 70
     1
102
RTVSPropertyOp43
 70
     1
102
RTVSPropertyOp44
 70
     1
102
RTVSPropertyOp45
 70
     1
102
RTVSPropertyOp46
 70
     1
102
RTVSPropertyOp47
 70
     1
102
RTVSPropertyOp48
 70
     1
102
RTVSPropertyOp49
 70
     1
102
RTVSPropertyOp50
 70
     1
102
RTVSPropertyOp51
 70
     0
102
RTVSPropertyOp52
 70
     0
102
RTVSPropertyOp53
 70
     1
102
RTVSPropertyOp54
 70
     1
102
RTVSPropertyOp55
 70
     1
102
RTVSPropertyOp56
 70
     1
102
RTVSPropertyOp57
 70
     1
102
RTVSPost2010Prop28
280
     0
102
RTVSPost2010PropOp28
 70
     1
102
RTVSPost2010Prop29
280
     1
102
RTVSPost2010PropOp29
 70
     1
102
RTVSPost2010Prop30
280
     1
102
RTVSPost2010PropOp30
 70
     1
102
RTVSPost2010Prop31
280
     0
102
RTVSPost2010PropOp31
 70
     1
102
RTVSPost2010Prop32
280
     0
102
RTVSPost2010PropOp32
 70
     1
102
RTVSPost2010Prop33
280
     0
102
RTVSPost2010PropOp33
 70
     1
102
RTVSPost2010Prop34
280
     0
102
RTVSPost2010PropOp34
 70
     1
102
RTVSPost2010Prop35
280
     0
102
RTVSPost2010PropOp35
 70
     1
102
RTVSPost2010Prop36
280
     0
102
RTVSPost2010PropOp36
 70
     1
102
RTVSPost2010Prop37
 90
       50
102
RTVSPost2010PropOp37
 70
     1
102
RTVSPost2010Prop38
140
0.0
102
RTVSPost2010PropOp38
 70
     1
102
RTVSPost2010Prop39
140
1.0
102
RTVSPost2010PropOp39
 70
     1
102
RTVSPost2010Prop40
 90
        0
102
RTVSPost2010PropOp40
 70
     1
102
RTVSPost2010Prop41ColorIndex
 90
       18
102
RTVSPost2010Prop41ColorRGB
 90
        0
102
RTVSPost2010PropOp41
 70
     1
102
RTVSPost2010Prop42
 90
       50
102
RTVSPost2010PropOp42
 70
     1
102
RTVSPost2010Prop43
 90
        3
102
RTVSPost2010PropOp43
 70
     1
102
RTVSPost2010Prop44ColorIndex
 90
        5
102
RTVSPost2010Prop44ColorRGB
 90
      255
102
RTVSPost2010PropOp44
 70
     1
102
RTVSPost2010Prop45
280
     0
102
RTVSPost2010PropOp45
 70
     1
102
RTVSPost2010Prop46
 90
       50
102
RTVSPost2010PropOp46
 70
     1
102
RTVSPost2010Prop47
 90
       50
102
RTVSPost2010PropOp47
 70
     1
102
RTVSPost2010Prop48
 90
       50
102
RTVSPost2010PropOp48
 70
     1
102
RTVSPost2010Prop49
280
     0
102
RTVSPost2010PropOp49
 70
     1
102
RTVSPost2010Prop50
 90
       50
102
RTVSPost2010PropOp50
 70
     1
102
RTVSPost2010Prop51ColorIndex
 90
      256
102
RTVSPost2010Prop51ColorRGB
 90
-16777216
102
RTVSPost2010PropOp51
 70
     0
102
RTVSPost2010Prop52
140
1.0
102
RTVSPost2010PropOp52
 70
     0
102
RTVSPost2010Prop53
 90
        2
102
RTVSPost2010PropOp53
 70
     1
102
RTVSPost2010Prop54
  1
strokes_ogs.tif
102
RTVSPost2010PropOp54
 70
     1
102
RTVSPost2010Prop55
280
     0
102
RTVSPost2010PropOp55
 70
     1
102
RTVSPost2010Prop56
140
1.0
102
RTVSPost2010PropOp56
 70
     1
102
RTVSPost2010Prop57
140
1.0
102
RTVSPost2010PropOp57
 70
     1
  0
ENDSEC
  0
EOF
