  0
SECTION
  2
ENTITIES
  0
LINE
  8
LAYER_1
 62
  4
 10
96.960503000000
 20
57.206017000000
 11
96.960150000000
 21
57.197197000000
  0
LINE
  8
LAYER_1
 62
  4
 10
65.291204000000
 20
63.715573000000
 11
65.290851000000
 21
63.724393000000
  0
POLYLINE
  8
LAYER_1
 62
  4
 66
  1
 70
  1
  0
VERTEX
  8
LAYER_1
 10
34.094593048096
 20
58.902561187744
  0
VERTEX
  8
LAYER_1
 10
34.094593048096
 20
47.691635131836
  0
VERTEX
  8
LAYER_1
 10
67.595779418945
 20
47.691635131836
  0
VERTEX
  8
LAYER_1
 10
67.595779418945
 20
45.669158935547
  0
VERTEX
  8
LAYER_1
 10
34.094593048096
 20
45.669158935547
  0
VERTEX
  8
LAYER_1
 10
34.094593048096
 20
34.941539764404
  0
VERTEX
  8
LAYER_1
 10
67.595779418945
 20
34.941539764404
  0
VERTEX
  8
LAYER_1
 10
67.595779418945
 20
32.919067382813
  0
VERTEX
  8
LAYER_1
 10
34.094593048096
 20
32.919067382813
  0
VERTEX
  8
LAYER_1
 10
34.094593048096
 20
22.191446304321
  0
VERTEX
  8
LAYER_1
 10
67.595779418945
 20
22.191446304321
  0
VERTEX
  8
LAYER_1
 10
67.595779418945
 20
20.169324874878
  0
VERTEX
  8
LAYER_1
 10
34.094593048096
 20
20.169324874878
  0
VERTEX
  8
LAYER_1
 10
34.094593048096
 20
9.199700355530
  0
VERTEX
  8
LAYER_1
 10
32.569183349609
 20
9.199700355530
  0
VERTEX
  8
LAYER_1
 10
32.551544189453
 20
20.169324874878
  0
VERTEX
  8
LAYER_1
 10
24.079231262207
 20
20.169324874878
  0
VERTEX
  8
LAYER_1
 10
22.819110870361
 20
22.191446304321
  0
VERTEX
  8
LAYER_1
 10
32.571651458740
 20
22.191446304321
  0
VERTEX
  8
LAYER_1
 10
32.571651458740
 20
45.669158935547
  0
VERTEX
  8
LAYER_1
 10
22.722095489502
 20
45.669158935547
  0
VERTEX
  8
LAYER_1
 10
23.979396820068
 20
47.691635131836
  0
VERTEX
  8
LAYER_1
 10
32.551544189453
 20
47.691635131836
  0
VERTEX
  8
LAYER_1
 10
32.569183349609
 20
58.902561187744
  0
VERTEX
  8
LAYER_1
 10
34.094593048096
 20
58.902561187744
  0
SEQEND
  0
POLYLINE
  8
LAYER_1
 62
  4
 66
  1
 70
  1
  0
VERTEX
  8
LAYER_1
 10
52.221847534180
 20
66.765693664551
  0
VERTEX
  8
LAYER_1
 10
63.246150970459
 20
57.246334075928
  0
VERTEX
  8
LAYER_1
 10
63.246150970459
 20
66.615760803223
  0
VERTEX
  8
LAYER_1
 10
65.241111755371
 20
66.615760803223
  0
VERTEX
  8
LAYER_1
 10
75.469902038574
 20
57.513034820557
  0
VERTEX
  8
LAYER_1
 10
75.469902038574
 20
66.715599060059
  0
VERTEX
  8
LAYER_1
 10
77.464859008789
 20
66.715599060059
  0
VERTEX
  8
LAYER_1
 10
77.464859008789
 20
54.442104339600
  0
VERTEX
  8
LAYER_1
 10
75.590904235840
 20
54.415645599365
  0
VERTEX
  8
LAYER_1
 10
65.290847778320
 20
63.724391937256
  0
VERTEX
  8
LAYER_1
 10
65.241111755371
 20
63.768138885498
  0
VERTEX
  8
LAYER_1
 10
65.241111755371
 20
54.665763854980
  0
VERTEX
  8
LAYER_1
 10
63.246150970459
 20
54.665763854980
  0
VERTEX
  8
LAYER_1
 10
52.221847534180
 20
64.092338562012
  0
VERTEX
  8
LAYER_1
 10
52.221847534180
 20
54.442104339600
  0
VERTEX
  8
LAYER_1
 10
50.226886749268
 20
54.442104339600
  0
VERTEX
  8
LAYER_1
 10
50.226886749268
 20
66.765693664551
  0
VERTEX
  8
LAYER_1
 10
52.221847534180
 20
66.765693664551
  0
SEQEND
  0
POLYLINE
  8
LAYER_1
 62
  4
 66
  1
 70
  1
  0
VERTEX
  8
LAYER_1
 10
83.891143798828
 20
54.155899047852
  0
VERTEX
  8
LAYER_1
 10
94.915451049805
 20
63.675254821777
  0
VERTEX
  8
LAYER_1
 10
94.915451049805
 20
54.305831909180
  0
VERTEX
  8
LAYER_1
 10
96.910408020020
 20
54.305831909180
  0
VERTEX
  8
LAYER_1
 10
107.139198303223
 20
63.408554077148
  0
VERTEX
  8
LAYER_1
 10
107.139198303223
 20
54.205993652344
  0
VERTEX
  8
LAYER_1
 10
109.134155273438
 20
54.205993652344
  0
VERTEX
  8
LAYER_1
 10
109.134155273438
 20
66.479484558105
  0
VERTEX
  8
LAYER_1
 10
107.260200500488
 20
66.505943298340
  0
VERTEX
  8
LAYER_1
 10
96.960151672363
 20
57.197196960449
  0
VERTEX
  8
LAYER_1
 10
96.910408020020
 20
57.153453826904
  0
VERTEX
  8
LAYER_1
 10
96.910408020020
 20
66.255821228027
  0
VERTEX
  8
LAYER_1
 10
94.915451049805
 20
66.255821228027
  0
VERTEX
  8
LAYER_1
 10
83.891143798828
 20
56.829250335693
  0
VERTEX
  8
LAYER_1
 10
83.891143798828
 20
66.479484558105
  0
VERTEX
  8
LAYER_1
 10
81.896186828613
 20
66.479484558105
  0
VERTEX
  8
LAYER_1
 10
81.896186828613
 20
54.155899047852
  0
VERTEX
  8
LAYER_1
 10
83.891143798828
 20
54.155899047852
  0
SEQEND
  0
POLYLINE
  8
LAYER_1
 62
  4
 66
  1
 70
  1
  0
VERTEX
  8
LAYER_1
 10
111.833816528320
 20
46.953235626221
  0
VERTEX
  8
LAYER_1
 10
78.332633972168
 20
46.953235626221
  0
VERTEX
  8
LAYER_1
 10
78.332633972168
 20
44.930759429932
  0
VERTEX
  8
LAYER_1
 10
111.833816528320
 20
44.930759429932
  0
VERTEX
  8
LAYER_1
 10
111.833816528320
 20
34.203140258789
  0
VERTEX
  8
LAYER_1
 10
78.332633972168
 20
34.203140258789
  0
VERTEX
  8
LAYER_1
 10
78.332633972168
 20
32.180667877197
  0
VERTEX
  8
LAYER_1
 10
111.833816528320
 20
32.180667877197
  0
VERTEX
  8
LAYER_1
 10
111.833816528320
 20
21.453046798706
  0
VERTEX
  8
LAYER_1
 10
78.332633972168
 20
21.453046798706
  0
VERTEX
  8
LAYER_1
 10
78.332633972168
 20
19.430925369263
  0
VERTEX
  8
LAYER_1
 10
111.833816528320
 20
19.430925369263
  0
VERTEX
  8
LAYER_1
 10
111.833816528320
 20
8.461299896240
  0
VERTEX
  8
LAYER_1
 10
113.359230041504
 20
8.461299896240
  0
VERTEX
  8
LAYER_1
 10
113.376869201660
 20
19.430925369263
  0
VERTEX
  8
LAYER_1
 10
121.849182128906
 20
19.430925369263
  0
VERTEX
  8
LAYER_1
 10
123.109298706055
 20
21.453046798706
  0
VERTEX
  8
LAYER_1
 10
113.356758117676
 20
21.453046798706
  0
VERTEX
  8
LAYER_1
 10
113.356758117676
 20
44.930759429932
  0
VERTEX
  8
LAYER_1
 10
123.206314086914
 20
44.930759429932
  0
VERTEX
  8
LAYER_1
 10
121.949012756348
 20
46.953235626221
  0
VERTEX
  8
LAYER_1
 10
113.376869201660
 20
46.953235626221
  0
VERTEX
  8
LAYER_1
 10
113.359230041504
 20
58.164161682129
  0
VERTEX
  8
LAYER_1
 10
111.833816528320
 20
58.164161682129
  0
VERTEX
  8
LAYER_1
 10
111.833816528320
 20
46.953235626221
  0
SEQEND
  0
POLYLINE
  8
LAYER_1
 62
  4
 66
  1
 70
  1
  0
VERTEX
  8
LAYER_1
 10
127.881759643555
 20
42.080810546875
  0
VERTEX
  8
LAYER_1
 10
129.903884887695
 20
42.080810546875
  0
VERTEX
  8
LAYER_1
 10
129.903884887695
 20
8.045510292053
  0
VERTEX
  8
LAYER_1
 10
127.881759643555
 20
8.045510292053
  0
VERTEX
  8
LAYER_1
 10
127.881759643555
 20
42.080810546875
  0
SEQEND
  0
POLYLINE
  8
LAYER_1
 62
  4
 66
  1
 70
  1
  0
VERTEX
  8
LAYER_1
 10
135.023040771484
 20
42.080810546875
  0
VERTEX
  8
LAYER_1
 10
133.000915527344
 20
42.080810546875
  0
VERTEX
  8
LAYER_1
 10
133.000915527344
 20
8.045510292053
  0
VERTEX
  8
LAYER_1
 10
135.023040771484
 20
8.045510292053
  0
VERTEX
  8
LAYER_1
 10
135.023040771484
 20
42.080810546875
  0
SEQEND
  0
POLYLINE
  8
LAYER_1
 62
  4
 66
  1
 70
  1
  0
VERTEX
  8
LAYER_1
 10
140.142196655273
 20
42.080810546875
  0
VERTEX
  8
LAYER_1
 10
138.120086669922
 20
42.080810546875
  0
VERTEX
  8
LAYER_1
 10
138.120086669922
 20
8.045510292053
  0
VERTEX
  8
LAYER_1
 10
140.142196655273
 20
8.045510292053
  0
VERTEX
  8
LAYER_1
 10
140.142196655273
 20
42.080810546875
  0
SEQEND
  0
POLYLINE
  8
LAYER_1
 62
  4
 66
  1
 70
  1
  0
VERTEX
  8
LAYER_1
 10
143.238876342773
 20
42.080810546875
  0
VERTEX
  8
LAYER_1
 10
145.261001586914
 20
42.080810546875
  0
VERTEX
  8
LAYER_1
 10
145.261001586914
 20
8.045510292053
  0
VERTEX
  8
LAYER_1
 10
143.238876342773
 20
8.045510292053
  0
VERTEX
  8
LAYER_1
 10
143.238876342773
 20
42.080810546875
  0
SEQEND
  0
ENDSEC
  0
EOF
